Am Pentatonic 2nd, 3rd, & 4th Positions

(/) Slide Up  (\) Slide Down  (h) Hammer On  (p) Pull Off  (b) Bend (r) Release (v) Vibrato

E|---------------------------------------------------------------------8-----10-----
B|--------------------------------------------------------8-----10------------------
G|--------------------------------------------7-----9-------------------------------
D|-------------------------------7-----10-------------------------------------------
A|------------------7-----10--------------------------------------------------------
E|-----8-----10---------------------------------------------------------------------



E|--------------------------------------------------------------------------10-----12-----
B|------------------------------------------------------------10-----13-------------------
G|-----------------------------------------------9-----12---------------------------------
D|---------------------------------10-----12----------------------------------------------
A|-------------------10-----12------------------------------------------------------------
E|-----10-----12--------------------------------------------------------------------------



E|---------------------------------------------------------------------------12-----15-----
B|-------------------------------------------------------------13-----15-------------------
G|-----------------------------------------------12-----14---------------------------------
D|---------------------------------12-----14-----------------------------------------------
A|-------------------12-----15-------------------------------------------------------------
E|-----12-----15---------------------------------------------------------------------------
http://www.guitartabcreator.com
Guitar Tab Creator is intended to store guitar tab created through the tool. It currently does not support in-line text editing. Any text you place in here will be lost. If you need to comment on your tab, please use the "Tab Notes" section located below.