Daly City Train (Rancid) , bass tab

(/) Slide Up  (\) Slide Down  (h) Hammer On  (p) Pull Off  (b) Bend (r) Release (v) Vibrato


E|--------------------------------|-----------------------|--
B|--------------------------------|-----------------------|--
G|--------------------------------|-----------------------|--
D|-----2--0-----0-----2--0-----0--|--3--2--3--2--3--2--5--|--
A|-----------2--------------2-----|-----------------------|--
E|--3--------------3--------------|-----------------------|--



E|-----------------------------|--------------------------------------
B|-----------------------------|--------------------------------------
G|-----------------------------|--------------------------------------
D|-----2--5--2--5--------------|-----2--0-----0-----------------------
A|--3--------------3--1--0-----|-----------2--------5--5--5--5--5--5--
E|--------------------------1--|--3--------------3--------------------



E|--------------|--------------|--------------|--------------|--
B|--------------|--------------|--------------|--------------|--
G|--------------|--------------|--------------|--------------|--
D|--------------|--------------|--------------|--5--3--2--0--|--
A|--3--3--3--3--|--------------|--------------|--------------|--
E|--------------|--1--1--1--1--|--3--3--3--3--|--------------|--



E|-----------------------|--
B|-----------------------|--
G|-----------------------|--
D|-----------------------|--
A|--3--------------------|--
E|-----1--3--1--1--3--1--|--
http://www.guitartabcreator.com
Guitar Tab Creator is intended to store guitar tab created through the tool. It currently does not support in-line text editing. Any text you place in here will be lost. If you need to comment on your tab, please use the "Tab Notes" section located below.