Initiate Acoustic

(/) Slide Up  (\) Slide Down  (h) Hammer On  (p) Pull Off  (b) Bend (r) Release (v) Vibrato


Capo 2nd Fret

Intro:
E|--3---3--3333-33--|--3---3--3333-33--|--3---3--3333-33--|--3---3--3333-33--|
B|--3---3--3333-33--|--3---3--3333-33--|--3---3--3333-33--|--3---3--3333-33--| (x2)
G|--0---0--0000-00--|--0---0--0022-22--|--0---0--0000-00--|--0---0--0022-22--|
D|--0---0--0022-22--|--0---0--0000-00--|--0---0--0022-22--|--0---0--0000-00--|
A|--2---2--2233-33--|--2---2--2200-00--|--2---2--2233-33--|--2---2--2200-00--|
E|--3---3--3300-00--|--3---3--3322-22--|--3---3--3300-00--|--3---3--3322-22--|


Verse 1:
E|----3-3-----3-3---|----3-3-----3-3---|----3-3-----3-3---|----3-3-----3-3---|
B|----3-3-----3-3---|----3-3-----3-3---|----3-3-----3-3---|----3-3-----3-3---|
G|----0-0-----0-0---|----0-0-----2-2---|----0-0-----0-0---|----0-0-----2-2---|
D|----0-0-----2-2---|----0-0-----0-0---|----0-0-----2-2---|----0-0-----0-0---|
A|----2-2-----3-3---|----2-2-----0-0---|----2-2-----3-3---|----2-2-----0-0---|
E|--3-3-3---0-0-0---|--3-3-3---2-2-2---|--3-3-3---0-0-0---|--3-3-3---2-2-2---|

E|--3---3--3333-33--|--3---3--3333-33--|
B|--3---3--3333-33--|--3---3--3333-33--|
G|--0---0--0000-00--|--0---0--0022-22--|
D|--0---0--0022-22--|--0---0--0000-00--|
A|--2---2--2233-33--|--2---2--2200-00--|
E|--3---3--3300-00--|--3---3--3322-22--|

E|----3-3-----3-3---|----3-3-----3-3---|----3-3-----3-3---|----3-3-----3-3---|
B|----3-3-----3-3---|----3-3-----3-3---|----3-3-----3-3---|----3-3-----3-3---|
G|----0-0-----0-0---|----0-0-----2-2---|----0-0-----0-0---|----0-0-----2-2---|
D|----0-0-----2-2---|----0-0-----0-0---|----0-0-----2-2---|----0-0-----0-0---|
A|----2-2-----3-3---|----2-2-----0-0---|----2-2-----3-3---|----2-2-----0-0---|
E|--3-3-3---0-0-0---|--3-3-3---2-2-2---|--3-3-3---0-0-0---|--3-3-3---2-2-2---|

E|--3---3--3333-33--|--3---3--3333-33--|
B|--3---3--3333-33--|--3---3--3333-33--|
G|--0---0--0000-00--|--0---0--0022-22--|
D|--0---0--0022-22--|--0---0--0000-00--|
A|--2---2--2233-33--|--2---2--2200-00--|
E|--3---3--3300-00--|--3---3--3322-22--|


Pre-Chorus:
E|--0---0--0-00-0000|--0---0--0-00-0000|--0---0--0-00-0000|--2---2-33-22-22--|
B|--1---1--1-11-1111|--0---0--0-00-0000|--1---1--1-11-1111|--3---3-33-33-33--|
G|--2---2--2-22-2222|--2---2--2-22-2222|--2---2--2-22-2222|--2---2-22-22-22--|
D|--2---2--2-22-2222|--2---2--2-22-2222|--2---2--2-22-2222|--0---0-00-00-00--|
A|--0---0--0-00-0000|--0---0--0-00-0000|--0---0--0-00-0000|--0---0-00-00-00--|
E|--0---0--0-00-0000|--0---0--0-00-0000|--0---0--0-00-0000|--0---0-00-00-00--|


Chorus:
E|--3-22-2--0-0-0-0-|--3-3-3-3-3-3-3-3-|--3-22-2--0-0-0-0-|--3-3-3-3-3-3-3-3-|
B|--3-33-3--1-1-1-1-|--3-3-3-3-3-3-3-3-|--3-33-3--1-1-1-1-|--3-3-3-3-3-3-3-3-|
G|--0-00-0--0-0-0-0-|--0-0-0-0-2-2-2-2-|--0-00-0--0-0-0-0-|--0-0-0-0-2-2-2-2-|
D|--0-00-0--2-2-2-2-|--0-0-0-0-0-0-0-0-|--0-00-0--2-2-2-2-|--0-0-0-0-0-0-0-0-|
A|--0-00-0--3-3-3-3-|--2-2-2-2-0-0-0-0-|--0-00-0--3-3-3-3-|--2-2-2-2-0-0-0-0-|
E|--0-00-0--0-0-0-0-|--3-3-3-3-2-2-2-2-|--0-00-0--0-0-0-0-|--3-3-3-3-2-2-2-2-|

E|--0---0---0---0---|--0-00-00~--------|
B|--1---1---0---0---|--1-11-33~--------|
G|--2---2---2---2---|--0-00-00~--------|
D|--2---2---2---2---|--2-22-22~--------|
A|--0---0---0---0---|--3-33-33~--------|
E|--0---0---0---0---|--0-00-00~--------|


Instrumental:
E|--3---3--3333-33--|--3---3--3333-33--|--3---3--3333-33--|--3---3--3333-33--|
B|--3---3--3333-33--|--3---3--3333-33--|--3---3--3333-33--|--3---3--3333-33--| (x2)
G|--0---0--0000-00--|--0---0--0022-22--|--0---0--0000-00--|--0---0--0022-22--|
D|--0---0--0022-22--|--0---0--0000-00--|--0---0--0022-22--|--0---0--0000-00--|
A|--2---2--2233-33--|--2---2--2200-00--|--2---2--2233-33--|--2---2--2200-00--|
E|--3---3--3300-00--|--3---3--3322-22--|--3---3--3300-00--|--3---3--3322-22--|



Verse 2:
E|----3-3-----3-3---|----3-3-----3-3---|----3-3-----3-3---|----3-3-----3-3---|
B|----3-3-----3-3---|----3-3-----3-3---|----3-3-----3-3---|----3-3-----3-3---|
G|----0-0-----0-0---|----0-0-----2-2---|----0-0-----0-0---|----0-0-----2-2---|
D|----0-0-----2-2---|----0-0-----0-0---|----0-0-----2-2---|----0-0-----0-0---|
A|----2-2-----3-3---|----2-2-----0-0---|----2-2-----3-3---|----2-2-----0-0---|
E|--3-3-3---0-0-0---|--3-3-3---2-2-2---|--3-3-3---0-0-0---|--3-3-3---2-2-2---|

E|--3---3--3333-33--|--3---3--3333-33--|
B|--3---3--3333-33--|--3---3--3333-33--|
G|--0---0--0000-00--|--0---0--0022-22--|
D|--0---0--0022-22--|--0---0--0000-00--|
A|--2---2--2233-33--|--2---2--2200-00--|
E|--3---3--3300-00--|--3---3--3322-22--|

E|--33--3---33--3---|--33--3---33--3---|--33--3---33--3---|--3-------33333333|
B|--33--3---33--3---|--33--3---33--3---|--33--3---33--3---|--3-------33333333|
G|--00--0---00--0---|--00--0---22--2---|--00--0---00--0---|--0-------22222222|
D|--00--0---22--2---|--00--0---00--0---|--00--0---22--2---|--0-------00000000|
A|--22--2---33--3---|--22--2---00--0---|--22--2---33--3---|--2-------00000000|
E|--33--3---00--0---|--33--3---22--2---|--33--3---00--0---|--3-------22222222|

E|--3---3--3333-33--|--3---3--3333-33--|
B|--3---3--3333-33--|--3---3--3333-33--|
G|--0---0--0000-00--|--0---0--0022-22--|
D|--0---0--0022-22--|--0---0--0000-00--|
A|--2---2--2233-33--|--2---2--2200-00--|
E|--3---3--3300-00--|--3---3--3322-22--|


Pre-Chorus:
E|--0---0--0-00-0000|--0---0--0-00-0000|--0---0--0-00-0000|--2---2-33-22-22--|
B|--1---1--1-11-1111|--0---0--0-00-0000|--1---1--1-11-1111|--3---3-33-33-33--|
G|--2---2--2-22-2222|--2---2--2-22-2222|--2---2--2-22-2222|--2---2-22-22-22--|
D|--2---2--2-22-2222|--2---2--2-22-2222|--2---2--2-22-2222|--0---0-00-00-00--|
A|--0---0--0-00-0000|--0---0--0-00-0000|--0---0--0-00-0000|--0---0-00-00-00--|
E|--0---0--0-00-0000|--0---0--0-00-0000|--0---0--0-00-0000|--0---0-00-00-00--|


Chorus:
E|--3-22-2--0-0-0-0-|--3-3-3-3-3-3-3-3-|--3-22-2--0-0-0-0-|--3-3-3-3-3-3-3-3-|
B|--3-33-3--1-1-1-1-|--3-3-3-3-3-3-3-3-|--3-33-3--1-1-1-1-|--3-3-3-3-3-3-3-3-|
G|--0-00-0--0-0-0-0-|--0-0-0-0-2-2-2-2-|--0-00-0--0-0-0-0-|--0-0-0-0-2-2-2-2-|
D|--0-00-0--2-2-2-2-|--0-0-0-0-0-0-0-0-|--0-00-0--2-2-2-2-|--0-0-0-0-0-0-0-0-|
A|--0-00-0--3-3-3-3-|--2-2-2-2-0-0-0-0-|--0-00-0--3-3-3-3-|--2-2-2-2-0-0-0-0-|
E|--0-00-0--0-0-0-0-|--3-3-3-3-2-2-2-2-|--0-00-0--0-0-0-0-|--3-3-3-3-2-2-2-2-|

E|--0---0---0---0---|--0-00-00~--------|
B|--1---1---0---0---|--1-11-33~--------|
G|--2---2---2---2---|--0-00-00~--------|
D|--2---2---2---2---|--2-22-22~--------|
A|--0---0---0---0---|--3-33-33~--------|
E|--0---0---0---0---|--0-00-00~--------|


Bridge:
E|--0---0--0-00-0000|--0---0--0-00-0000|--0---0--0-00-0000|--0---0--0-00-0000|
B|--1---1--1-00-0000|--1---1--1-00-0000|--1---1--1-00-0000|--1---1--1-00-0000|
G|--2---2--2-22-2222|--2---2--2-22-2222|--2---2--2-22-2222|--2---2--2-22-2222|
D|--2---2--2-22-2222|--2---2--2-22-2222|--2---2--2-22-2222|--2---2--2-22-2222|
A|--0---0--0-00-0000|--0---0--0-00-0000|--0---0--0-00-0000|--0---0--0-00-0000|
E|--0---0--0-00-0000|--0---0--0-00-0000|--0---0--0-00-0000|--0---0--0-00-0000|

E|--0---0--0-00-0000|--0---0--0-00-0000|--0---0--0-00-0000|--0---0--0-00-0000|
B|--1---1--1-00-0000|--1---1--1-00-0000|--1---1--1-00-0000|--1---1--1-00-0000|
G|--2---2--2-22-2222|--2---2--2-22-2222|--2---2--2-22-2222|--2---2--2-22-2222|
D|--2---2--2-22-2222|--2---2--2-22-2222|--2---2--2-22-2222|--2---2--2-22-2222|
A|--0---0--0-00-0000|--0---0--0-00-0000|--0---0--0-00-0000|--0---0--0-00-0000|
E|--0---0--0-00-0000|--0---0--0-00-0000|--0---0--0-00-0000|--0---0--0-00-0000|

E|--2-2-2-22-00-0000|--2-2-2-22-00-0000|--2-2-2-33-00-0000|--2---2--00~------|
B|--2-2-2-22-22-2222|--2-2-2-22-22-2222|--2-2-2-22-22-2222|--3---3--33~------|
G|--3-3-3-33-33-3333|--3-3-3-33-33-3333|--3-3-3-33-33-3333|--2---2--22~------|
D|--0-0-0-00-00-0000|--0-0-0-00-00-0000|--0-0-0-00-00-0000|--0---0--00~------|
A|--0-0-0-00-00-0000|--0-0-0-00-00-0000|--0-0-0-00-00-0000|--0---0--00~------|
E|--0-0-0-00-00-0000|--0-0-0-00-00-0000|--0-0-0-00-00-0000|--0---0--00~------|


Chorus:
E|--3-22-2--0-0-0-0-|--3-3-3-3-3-3-3-3-|--3-22-2--0-0-0-0-|--3-3-3-3-3-3-3-3-|
B|--3-33-3--1-1-1-1-|--3-3-3-3-3-3-3-3-|--3-33-3--1-1-1-1-|--3-3-3-3-3-3-3-3-|
G|--0-00-0--0-0-0-0-|--0-0-0-0-2-2-2-2-|--0-00-0--0-0-0-0-|--0-0-0-0-2-2-2-2-|
D|--0-00-0--2-2-2-2-|--0-0-0-0-0-0-0-0-|--0-00-0--2-2-2-2-|--0-0-0-0-0-0-0-0-|
A|--0-00-0--3-3-3-3-|--2-2-2-2-0-0-0-0-|--0-00-0--3-3-3-3-|--2-2-2-2-0-0-0-0-|
E|--0-00-0--0-0-0-0-|--3-3-3-3-2-2-2-2-|--0-00-0--0-0-0-0-|--3-3-3-3-2-2-2-2-|

E|--3-22-2--0-0-0-0-|--3-3-3-3-3-3-3-3-|--3-22-2--0-0-0-0-|--3-3-3-3-3-3-3-3-|
B|--3-33-3--1-1-1-1-|--3-3-3-3-3-3-3-3-|--3-33-3--1-1-1-1-|--3-3-3-3-3-3-3-3-|
G|--0-00-0--0-0-0-0-|--0-0-0-0-2-2-2-2-|--0-00-0--0-0-0-0-|--0-0-0-0-2-2-2-2-|
D|--0-00-0--2-2-2-2-|--0-0-0-0-0-0-0-0-|--0-00-0--2-2-2-2-|--0-0-0-0-0-0-0-0-|
A|--0-00-0--3-3-3-3-|--2-2-2-2-0-0-0-0-|--0-00-0--3-3-3-3-|--2-2-2-2-0-0-0-0-|
E|--0-00-0--0-0-0-0-|--3-3-3-3-2-2-2-2-|--0-00-0--0-0-0-0-|--3-3-3-3-2-2-2-2-|

E|--0---0---0---0---|--2---2-33-22-22--|
B|--1---1---1---1---|--3---3-33-33-33--|
G|--2---2---0---0---|--2---2-22-22-22--|
D|--2---2---2---2---|--0---0-00-00-00--|
A|--0---0---3---3---|--0---0-00-00-00--|
E|--0---0---0---0---|--0---0-00-00-00--|

E|--3-22-2--0-0-0-0-|--3-3-3-3-3-3-3-3-|--3-22-2--0-0-0-0-|--3-3-3-3-3-3-3-3-|
B|--3-33-3--1-1-1-1-|--3-3-3-3-3-3-3-3-|--3-33-3--1-1-1-1-|--3-3-3-3-3-3-3-3-|
G|--0-00-0--0-0-0-0-|--0-0-0-0-2-2-2-2-|--0-00-0--0-0-0-0-|--0-0-0-0-2-2-2-2-|
D|--0-00-0--2-2-2-2-|--0-0-0-0-0-0-0-0-|--0-00-0--2-2-2-2-|--0-0-0-0-0-0-0-0-|
A|--0-00-0--3-3-3-3-|--2-2-2-2-0-0-0-0-|--0-00-0--3-3-3-3-|--2-2-2-2-0-0-0-0-|
E|--0-00-0--0-0-0-0-|--3-3-3-3-2-2-2-2-|--0-00-0--0-0-0-0-|--3-3-3-3-2-2-2-2-|

E|--3-22-2--0-0-0-0-|--3-3-3-3-3-3-3-3-|--3-22-2--0-0-0-0-|--3-3-3-3-3-3-3-3-|
B|--3-33-3--1-1-1-1-|--3-3-3-3-3-3-3-3-|--3-33-3--1-1-1-1-|--3-3-3-3-3-3-3-3-|
G|--0-00-0--0-0-0-0-|--0-0-0-0-2-2-2-2-|--0-00-0--0-0-0-0-|--0-0-0-0-2-2-2-2-|
D|--0-00-0--2-2-2-2-|--0-0-0-0-0-0-0-0-|--0-00-0--2-2-2-2-|--0-0-0-0-0-0-0-0-|
A|--0-00-0--3-3-3-3-|--2-2-2-2-0-0-0-0-|--0-00-0--3-3-3-3-|--2-2-2-2-0-0-0-0-|
E|--0-00-0--0-0-0-0-|--3-3-3-3-2-2-2-2-|--0-00-0--0-0-0-0-|--3-3-3-3-2-2-2-2-|

E|--0---0---0---0---|--0---0-00-00-00--|--0---0---0---0---|--0---0-00-00-00--|
B|--1---1---0---0---|--1---1-33-11-11--|--1---1---0---0---|--1---1-33-11-11--|
G|--2---2---2---2---|--0---0-00-00-00--|--2---2---2---2---|--0---0-00-00-00--|
D|--2---2---2---2---|--2---2-22-22-22--|--2---2---2---2---|--2---2-22-22-22--|
A|--0---0---0---0---|--3---3-33-33-33--|--0---0---0---0---|--3---3-33-33-33--|
E|--0---0---0---0---|--0---0-00-00-00--|--0---0---0---0---|--0---0-00-00-00--|

E|--0---0---0---0---|--0-00-00~--------|------------------|--3~--------------|
B|--1---1---0---0---|--1-11-33~--------|------------------|--3~--------------|
G|--2---2---2---2---|--0-00-00~--------|------------------|--0~--------------|
D|--2---2---2---2---|--2-22-22~--------|------------------|--0~--------------|
A|--0---0---0---0---|--3-33-33~--------|------------------|--2~--------------|
E|--0---0---0---0---|--0-00-00~--------|------------------|--3~--------------|







Guitar Tab Creator is intended to store guitar tab created through the tool. It currently does not support in-line text editing. Any text you place in here will be lost. If you need to comment on your tab, please use the "Tab Notes" section located below.