Cigarette Box Lead

(/) Slide Up  (\) Slide Down  (h) Hammer On  (p) Pull Off  (b) Bend (r) Release (v) Vibrato



Intro:
E|--7---7-8-----7-8-|
B|----8-------8-----|
G|------------------| (x8)
D|------------------|
A|------------------|
E|------------------|


Verse 1 pt. 1:
E|--8~--------------|--------------8---|--7~--------------|--------------7---|--5~--------------|
B|--8~--------------|--------------8---|--7~--------------|--------------7---|--5~--------------|
G|------------------|------------------|------------------|------------------|------------------|
D|------------------|------------------|------------------|------------------|------------------|
A|------------------|------------------|------------------|------------------|------------------|
E|------------------|------------------|------------------|------------------|------------------|

E|--------------5---|--7~--------------|--------------7---|
B|--------------5---|--7~--------------|--------------7---|
G|------------------|------------------|------------------|
D|------------------|------------------|------------------|
A|------------------|------------------|------------------|
E|------------------|------------------|------------------|


Verse 1 pt. 2:
E|--7---7-9---119-7-|----7---7-----7---|--7---7-9---119-7-|----7---7-----7---|--7---7-9---119-7-|
B|----7-------------|--7---7---7-7---7-|----7-------------|--7---7---7-7---7-|----7-------------|
G|------------------|------------------|------------------|------------------|------------------|
D|------------------|------------------|------------------|------------------|------------------|
A|------------------|------------------|------------------|------------------|------------------|
E|------------------|------------------|------------------|------------------|------------------|

E|----7---7-----7---|--9---11--7-------|--9---11--9---7---|
B|--7---7---7-7---7-|--------------7---|------------------|
G|------------------|------------------|------------------|
D|------------------|------------------|------------------|
A|------------------|------------------|------------------|
E|------------------|------------------|------------------|


Chorus:
E|--7---7-8-7---7-8-|------7-8-7---7-8-|--7---7-8-7---7-8-|------7-8-7---7-8-|--7---7-8-7---7-8-|
B|----8-------8-----|----8-------8-----|----8-------8-----|----8-------8-----|----8-------8-----|
G|------------------|------------------|------------------|------------------|------------------|
D|------------------|------------------|------------------|------------------|------------------|
A|------------------|------------------|------------------|------------------|------------------|
E|------------------|------------------|------------------|------------------|------------------|

E|------7-8-7---7-8-|--7---7-8-7---7-8-|--7---7-8-7---7---|
B|----8-------8-----|----8-------8-----|----8-------8---8-|
G|------------------|------------------|------------------|
D|------------------|------------------|------------------|
A|------------------|------------------|------------------|
E|------------------|------------------|------------------|

E|--7---7-8-7---7-8-|------7-8-7---7-8-|--7---7-8-7---7-8-|------7-8-7---7-8-|--7---7-8-7---7-8-|
B|----8-------8-----|----8-------8-----|----8-------8-----|----8-------8-----|----8-------8-----|
G|------------------|------------------|------------------|------------------|------------------|
D|------------------|------------------|------------------|------------------|------------------|
A|------------------|------------------|------------------|------------------|------------------|
E|------------------|------------------|------------------|------------------|------------------|

E|------7-8-7---7-8-|--7---7-8-7---7-8-|------7-8~--------|
B|----8-------8-----|----8-------8-----|----8-------------|
G|------------------|------------------|------------------|
D|------------------|------------------|------------------|
A|------------------|------------------|------------------|
E|------------------|------------------|------------------|


Instrumental:
E|--8---8---88--8---|--8---8---88--8---|--7---7---77--7---|--7---7---77--7---|
B|----8---8---8---8-|----8---8---8---8-|----8---8---8---8-|----8---8---8---8-| (x2)
G|------------------|------------------|------------------|------------------|
D|------------------|------------------|------------------|------------------|
A|------------------|------------------|------------------|------------------|
E|------------------|------------------|------------------|------------------|


Verse 2 pt. 1:
E|--8~--------------|--------------8---|--7~--------------|--------------7---|--5~--------------|
B|--8~--------------|--------------8---|--7~--------------|--------------7---|--5~--------------|
G|------------------|------------------|------------------|------------------|------------------|
D|------------------|------------------|------------------|------------------|------------------|
A|------------------|------------------|------------------|------------------|------------------|
E|------------------|------------------|------------------|------------------|------------------|

E|--------------5---|--7~--------------|--------------7---|
B|--------------5---|--7~--------------|--------------7---|
G|------------------|------------------|------------------|
D|------------------|------------------|------------------|
A|------------------|------------------|------------------|
E|------------------|------------------|------------------|


Verse 2 pt. 2:
E|--7---7-9---119-7-|----7---7-----7---|--7---7-9---119-7-|----7---7-----7---|--7---7-9---119-7-|
B|----7-------------|--7---7---7-7---7-|----7-------------|--7---7---7-7---7-|----7-------------|
G|------------------|------------------|------------------|------------------|------------------|
D|------------------|------------------|------------------|------------------|------------------|
A|------------------|------------------|------------------|------------------|------------------|
E|------------------|------------------|------------------|------------------|------------------|

E|----7---7-----7---|--9---11--7-------|--9---11--9---7---|
B|--7---7---7-7---7-|--------------7---|------------------|
G|------------------|------------------|------------------|
D|------------------|------------------|------------------|
A|------------------|------------------|------------------|
E|------------------|------------------|------------------|


Chorus:
E|--7---7-8-7---7-8-|------7-8-7---7-8-|--7---7-8-7---7-8-|------7-8-7---7-8-|--7---7-8-7---7-8-|
B|----8-------8-----|----8-------8-----|----8-------8-----|----8-------8-----|----8-------8-----|
G|------------------|------------------|------------------|------------------|------------------|
D|------------------|------------------|------------------|------------------|------------------|
A|------------------|------------------|------------------|------------------|------------------|
E|------------------|------------------|------------------|------------------|------------------|

E|------7-8-7---7-8-|--7---7-8-7---7-8-|--7---7-8-7---7---|
B|----8-------8-----|----8-------8-----|----8-------8---8-|
G|------------------|------------------|------------------|
D|------------------|------------------|------------------|
A|------------------|------------------|------------------|
E|------------------|------------------|------------------|

E|--7---7-8-7---7-8-|------7-8-7---7-8-|--7---7-8-7---7-8-|------7-8-7---7-8-|--7---7-8-7---7-8-|
B|----8-------8-----|----8-------8-----|----8-------8-----|----8-------8-----|----8-------8-----|
G|------------------|------------------|------------------|------------------|------------------|
D|------------------|------------------|------------------|------------------|------------------|
A|------------------|------------------|------------------|------------------|------------------|
E|------------------|------------------|------------------|------------------|------------------|

E|------7-8-7---7-8-|--7---7-8-7---7-8-|--7---7-8-7---7---|
B|----8-------8-----|----8-------8-----|----8-------8---8-|
G|------------------|------------------|------------------|
D|------------------|------------------|------------------|
A|------------------|------------------|------------------|
E|------------------|------------------|------------------|


Bridge:
E|7h8-8-8-8-8-8-8-8-|--7-7-7-7-7-7-7-7-|7h8-8-8-8-8-8-8-8-|--7-7-7-7-7-7-7-7-|7h8-8-8-8-8-8-8-8-|
B|8---8-8-8-8-8-8-8-|--8-8-8-8-8-8-8-8-|8---8-8-8-8-8-8-8-|--8-8-8-8-8-8-8-8-|8---8-8-8-8-8-8-8-|
G|------------------|------------------|------------------|------------------|------------------|
D|------------------|------------------|------------------|------------------|------------------|
A|------------------|------------------|------------------|------------------|------------------|
E|------------------|------------------|------------------|------------------|------------------|

E|--7-7-7-7-7-7-7-7-|--10~---10~---1010|--7~----7~----7-7h8|
B|--8-8-8-8-8-8-8-8-|--8~----8~----8-8-|--8~----8~----8-8--|
G|------------------|------------------|-------------------|
D|------------------|------------------|-------------------|
A|------------------|------------------|-------------------|
E|------------------|------------------|-------------------|


Chorus:
E|--8~--------------|------------------|--7---7-8-7---7-8-|------7-8-7---7-8-|--7---7-8-7---7-8-|
B|--8~--------------|------------------|----8-------8-----|----8-------8-----|----8-------8-----|
G|------------------|------------------|------------------|------------------|------------------|
D|------------------|------------------|------------------|------------------|------------------|
A|------------------|------------------|------------------|------------------|------------------|
E|------------------|------------------|------------------|------------------|------------------|

E|------7-8-7---7-8-|--7---7-8-7---7-8-|--7---7-8-7---7---|
B|----8-------8-----|----8-------8-----|----8-------8---8-|
G|------------------|------------------|------------------|
D|------------------|------------------|------------------|
A|------------------|------------------|------------------|
E|------------------|------------------|------------------|

E|--7---7-8-7---7-8-|------7-8-7---7-8-|--7---7-8-7---7-8-|------7-8-7---7-8-|--7---7-8-7---7-8-|
B|----8-------8-----|----8-------8-----|----8-------8-----|----8-------8-----|----8-------8-----|
G|------------------|------------------|------------------|------------------|------------------|
D|------------------|------------------|------------------|------------------|------------------|
A|------------------|------------------|------------------|------------------|------------------|
E|------------------|------------------|------------------|------------------|------------------|

E|------7-8-7---7-8-|--7---7-8-7---7-8-|--7---7-8-7---7---|
B|----8-------8-----|----8-------8-----|----8-------8---8-|
G|------------------|------------------|------------------|
D|------------------|------------------|------------------|
A|------------------|------------------|------------------|
E|------------------|------------------|------------------|

E|--8---8---88--8---|--8---8---88--8---|--7---7---77--7---|--7---7---77--7---|--8---8---88--8---|
B|----8---8---8---8-|----8---8---8---8-|----8---8---8---8-|----8---8---8---8-|----8---8---8---8-|
G|------------------|------------------|------------------|------------------|
D|------------------|------------------|------------------|------------------|
A|------------------|------------------|------------------|------------------|
E|------------------|------------------|------------------|------------------|

E|--8---8---88--8---|--7---7---77--7---|--7---7---77--7---|
B|----8---8---8---8-|----8---8---8---8-|----8---8---8---8-|
G|------------------|------------------|------------------|
D|------------------|------------------|------------------|
A|------------------|------------------|------------------|
E|------------------|------------------|------------------|

E|--8---8---88--8---|--8---8---88--8---|--7---7---77--7---|--7---7---77--7---|--8---8---88--8---|
B|----8---8---8---8-|----8---8---8---8-|----8---8---8---8-|----8---8---8---8-|----8---8---8---8-|
G|------------------|------------------|------------------|------------------|
D|------------------|------------------|------------------|------------------|
A|------------------|------------------|------------------|------------------|
E|------------------|------------------|------------------|------------------|

E|--8---8---88--8---|--7---7---77--7---|--7---8~----------|
B|----8---8---8---8-|----8---8---8---8-|----8-------------|
G|------------------|------------------|------------------|
D|------------------|------------------|------------------|
A|------------------|------------------|------------------|
E|------------------|------------------|------------------|


Outro:
E|--7---7-9---119-7-|----7---7-----7---|--7---7-9---119-7-|----7---7-----7---|--7---7-9---119-7-|
B|----7-------------|--7---7---7-7---7-|----7-------------|--7---7---7-7---7-|----7-------------|
G|------------------|------------------|------------------|------------------|------------------|
D|------------------|------------------|------------------|------------------|------------------|
A|------------------|------------------|------------------|------------------|------------------|
E|------------------|------------------|------------------|------------------|------------------|

E|----7---7-----7---|--9---11--7-------|--9---11--9---7p6h7|
B|--7---7---7-7---7-|--------------7---|-------------------|
G|------------------|------------------|-------------------|
D|------------------|------------------|-------------------|
A|------------------|------------------|-------------------|
E|------------------|------------------|-------------------|
Guitar Tab Creator is intended to store guitar tab created through the tool. It currently does not support in-line text editing. Any text you place in here will be lost. If you need to comment on your tab, please use the "Tab Notes" section located below.