little intro

(/) Slide Up  (\) Slide Down  (h) Hammer On  (p) Pull Off  (b) Bend (r) Release (v) Vibrato

E|-----------------------------
B|-----------------------------
G|--------------15--17/19--17--
D|------15--17-----------------
A|--15-------------------------
E|-----------------------------



E|--------------------------
B|--------------------------
G|--17--15------------------
D|----------17--15----------
A|------------------17--15--
E|--------------------------
http://www.guitartabcreator.com
Guitar Tab Creator is intended to store guitar tab created through the tool. It currently does not support in-line text editing. Any text you place in here will be lost. If you need to comment on your tab, please use the "Tab Notes" section located below.