I Can't Hear Your - The Dead Weather

(/) Slide Up  (\) Slide Down  (h) Hammer On  (p) Pull Off  (b) Bend (r) Release (v) Vibrato


E|--------------------------------------------------------
B|--------------------------------------------------------
G|--------------------------------------------------------
D|-----------------5-3--------------------------5-3-------
A|-------3-5-----3-----5-3------------3-5-----3-----5-3---
E|-3-3-6-----3-6-----------6----3-3-6-----3-6-----------6-



E|---------------------------------------------------------
B|---------------------------------------------------------
G|-3-----------------------------3-------------------------
D|---5--5-5-3-5------5-5-3-5-------5--5-5-3-5---5-3--------
A|--------------------------------------------------5-3----
E|------------------------------------------------------3v-
http://www.guitartabcreator.com
Guitar Tab Creator is intended to store guitar tab created through the tool. It currently does not support in-line text editing. Any text you place in here will be lost. If you need to comment on your tab, please use the "Tab Notes" section located below.