hotel california

(/) Slide Up  (\) Slide Down  (h) Hammer On  (p) Pull Off  (b) Bend (r) Release (v) Vibrato
E|--0--------------0-----------------2--------------------0-----------------------
B|--0--------0--------------------0--------4--------3--------3--------3--------3--
G|--0-----0-----0-----0--2-----2--------2--------2-----2-----------2--------2-----
D|--2--2--------------------1-----------------0-----------------0-----------------
A|--2--------------------------------------------------------------------0--------
E|--0-----------------------------------------------------------------------------



E|-----0-----0--------0-----0-----0--------0----------------------------3-----
B|--------------0--------------------1--------1-------------------0-----------
G|--------0--------0-----------0--------0--------0-------0-----0-----0-----0--
D|--------------------------------------------------0h2-----0-----------------
A|--4--------------------3----------------------------------------------------
E|----------------------------------------------------------------------------



E|-----------------------0-----0--------0-----------------------------------2--
B|--0-----0--------0--------------1-----------1--------1--------------0--------
G|-----0--------0-----------2--------2-----2--------2-----------2--------2-----
D|-----------------------------------------------2-----------1-----1-----------
A|--2-----------------0-----------------------------------2--------------------
E|-----------3-----------------------------------------------------------------



E|--0-----------0--------3-----------2--0--1-----------0--0-----1-----------0--
B|--1-----------0--------0-----------3--3--1-----------1--1--1--3-----3--3--0--
G|--2-----------1--------0-----------2--2--2-----------0--0--0--2-----0--2--1--
D|--2-----0--2--0--------0--------0--0--0--3-----------2-----2--0--0--2--3--2--
A|--0--3--------2--3--2--2--2--3-----0--0--3--0--2--3--3--------0-----------2--
E|-----------------------3-----------------1-----------3-----------------------



E|-----------
B|--------0--
G|--1--2--1--
D|--2--2--2--
A|-----------
E|-----------
http://www.guitartabcreator.com
Guitar Tab Creator is intended to store guitar tab created through the tool. It currently does not support in-line text editing. Any text you place in here will be lost. If you need to comment on your tab, please use the "Tab Notes" section located below.