G Scales

(/) Slide Up  (\) Slide Down  (h) Hammer On  (p) Pull Off  (b) Bend (r) Release (v) Vibrato
E|-----------------------------------------------5--6--5--------------------------------------------
B|--------------------------------------5--6--8-----------8--6--5-----------------------------------
G|-----------------------------3--5--7-----------------------------7--5--3--------------------------
D|--------------------3--5--7-----------------------------------------------7--5--3-----------------
A|-----------3--5--7-----------------------------------------------------------------7--5--3--------
E|--3--5--6-----------------------------------------------------------------------------------6--5--



E|-----------------------------------------------4--6--4--------------------------------------------
B|--------------------------------------4--6--8-----------8--6--4-----------------------------------
G|-----------------------------3--5--7-----------------------------7--5--3--------------------------
D|--------------------3--5--6-----------------------------------------------6--5--3-----------------
A|-----------3--5--6-----------------------------------------------------------------6--5--3--------
E|--3--4--6-----------------------------------------------------------------------------------6--4--



E|-----------------------------------------------5--7--5--------------------------------------------
B|--------------------------------------5--7--8-----------8--7--5-----------------------------------
G|-----------------------------4--6--7-----------------------------7--6--4--------------------------
D|--------------------4--5--7-----------------------------------------------7--5--4-----------------
A|-----------4--5--7-----------------------------------------------------------------7--5--4--------
E|--3--5--7-----------------------------------------------------------------------------------7--5--



E|-----------------------------------------------5--7--5--------------------------------------------
B|--------------------------------------5--6--8-----------8--6--5-----------------------------------
G|-----------------------------4--5--7-----------------------------7--5--4--------------------------
D|--------------------3--5--7-----------------------------------------------7--5--3-----------------
A|-----------3--5--7-----------------------------------------------------------------7--5--3--------
E|--3--5--7-----------------------------------------------------------------------------------7--5--



E|-----------------------------------------------5--6--5--------------------------------------------
B|--------------------------------------4--6--8-----------8--6--4-----------------------------------
G|-----------------------------3--5--7-----------------------------7--5--3--------------------------
D|--------------------3--5--7-----------------------------------------------7--5--3-----------------
A|-----------3--5--6-----------------------------------------------------------------6--5--3--------
E|--3--5--6-----------------------------------------------------------------------------------6--5--



E|-----------------------------------------------4--6--4--------------------------------------------
B|--------------------------------------4--6--8-----------8--6--4-----------------------------------
G|-----------------------------3--5--6-----------------------------6--5--3--------------------------
D|--------------------3--5--6-----------------------------------------------6--5--3-----------------
A|-----------3--4--6-----------------------------------------------------------------6--4--3--------
E|--3--4--6-----------------------------------------------------------------------------------6--4--
http://www.guitartabcreator.com
Guitar Tab Creator is intended to store guitar tab created through the tool. It currently does not support in-line text editing. Any text you place in here will be lost. If you need to comment on your tab, please use the "Tab Notes" section located below.