Alex Masi Vagina Dentata

(/) Slide Up  (\) Slide Down  (h) Hammer On  (p) Pull Off  (b) Bend (r) Release (v) Vibrato


E|-------7---------12---------15--------------15--------------18--21----------------------------
B|----------------------------------------17--------------20------------------11/14-------------
G|--6h7-----11h12------14h15------15--18----------18--21------------------12-------------15-----
D|--------------------------------------------------------------------14-------------17---------
A|----------------------------------------------------------------------------------------------
E|----------------------------------------------------------------------------------------------



E|---------15p14----------------------------------------------------------------
B|--14h17---------------------16------13----------8----------------------12/15--
G|----------------15------12------14------15---------10-----8--11-----8---------
D|--------------------14----------------------14---------9---------9------------
A|------------------------------------------------------------------------------
E|------------------------------------------------------------------------------



E|------------------------------------------------------------------12--15--18b18v--18--
B|----------17----------17------15------------------------------14----------------------
G|------12----------14------14------16------------------12--15--------------------------
D|--14----------14----------------------14----------14----------------------------------
A|------------------------------------------13--16--------------------------------------
E|--------------------------------------------------------------------------------------



E|--------------12h14--12---------------------------------------------------------------------
B|------14--15-------------15--14b12--14--15--14--12------------------15------14------12------
G|--11------------------------------------------------15--14--15--16------16------15------15--
D|--------------------------------------------------------------------------------------------
A|--------------------------------------------------------------------------------------------
E|--------------------------------------------------------------------------------------------



E|--------------------------------------
B|--------------------------------------
G|--14--12------------------12--14--15--
D|----------15--12--14--15--------------
A|--------------------------------------
E|--------------------------------------
http://www.guitartabcreator.com
Guitar Tab Creator is intended to store guitar tab created through the tool. It currently does not support in-line text editing. Any text you place in here will be lost. If you need to comment on your tab, please use the "Tab Notes" section located below.