Hallelujah

(/) Slide Up  (\) Slide Down  (h) Hammer On  (p) Pull Off  (b) Bend (r) Release (v) Vibrato


E|-----------3--------|-----------3--------|-----------3--------|-----------3-----
B|--------0-----0-----|--------0-----0-----|--------0-----0-----|--------0-----0--
G|-----0--------------|-----0--------------|-----0--------------|-----0-----------
D|--------------------|--------------------|--------------------|-----------------
A|--------------------|--------------------|--------------------|-----------------
E|--3--------------2--|--0--------------2--|--3--------------2--|--0--------------



E|--------------------|--0--------0--------|--------------------|--0--------0--------
B|--3--------3--------|--------0-----0-----|--3--------3--------|--------0-----0-----
G|--------0-----0-----|-----0-----------0--|--------0-----0-----|-----0-----------0--
D|-----0-----------0--|--------------------|-----0-----------0--|--------------------
A|--------------------|--------------------|--------------------|--------------------
E|--3-----------------|--0-----------------|--3-----------------|--0-----------------



E|--0--------0--------|--0--------------1--|--------------------|-----------2--------
B|--------1-----1-----|--------3--3--0-----|--3--------3--------|--------3-----3-----
G|-----0-----------0--|-----0--------------|--------0-----0-----|-----2-----------2--
D|--------------------|--0--------0--------|-----0-----------0--|--0-----------------
A|--3-----------------|--------------------|--------------------|--------------------
E|--------------------|--------------------|--3-----------------|--------------------



E|--------------------|--0--------2--------|--3--------3--------|--3--------5--------
B|--3--------3-----3--|--------1--------3--|--------0--------0--|--------0-----5-----
G|--------0-----0-----|-----0--------2-----|-----0--------0-----|-----0-----------5--
D|-----0--------------|-----------0--------|--2--------0--------|--------------------
A|--------------------|--3-----------------|--------------------|--3--------0--------
E|--3-----------------|--------------------|--------------------|--------------------



E|--5--------5--------|--7--------7---------|---------------------|-----------------
B|--------7--------7--|--------7-----7--10--|--10--------8--------|-----------0--3--
G|-----7--------7-----|-----7---------------|---------9-----9-----|-----------------
D|--0-----------------|---------------------|------9-----------9--|-----------------
A|--------------------|---------------------|---------------------|-----------------
E|--------------------|--7------------------|--0------------------|--0--------------



E|--0--------0--------|-----------0-------|--------------------|-------------------
B|--------1-----1-----|--------1-------3--|--0--------0--------|-----------0----3--
G|-----0-----------0--|-----0-------------|--------0-----0-----|--------0----------
D|--------------------|-------------------|-----2-----------2--|-----2-------------
A|--3-----------------|--3----------------|--------------------|-------------------
E|--------------------|-------------------|--0-----------------|--0----------------



E|--0--------0--------|-----------0-------|--------------------|--------2--------
B|--------1-----1-----|--------1-------3--|--0--------0--1--0--|-----1-----1-----
G|-----0-----------0--|-----0-------------|--------0-----------|--2-----------0--
D|--------------------|-------------------|-----0--------------|--0--------------
A|--3-----------------|--3----------------|--------------------|-----------------
E|--------------------|-------------------|--3-----------------|-----------------



E|--------------------|--------------3v--
B|-----------1--------|--0--------0------
G|--0-----0-----0-----|--------0---------
D|-----2-----------2--|-----0------------
A|--------------------|------------------
E|--3-----------------|--3---------------
http://www.guitartabcreator.com
Guitar Tab Creator is intended to store guitar tab created through the tool. It currently does not support in-line text editing. Any text you place in here will be lost. If you need to comment on your tab, please use the "Tab Notes" section located below.