Your Grace is Enough - Key of G

(/) Slide Up  (\) Slide Down  (h) Hammer On  (p) Pull Off  (b) Bend (r) Release (v) Vibrato


E|------------------------------------------------------------
B|--8--8--8--10--7--8--10--7--8--8--7--5--3--8--7--8--12--12--
G|------------------------------------------------------------
D|------------------------------------------------------------
A|------------------------------------------------------------
E|------------------------------------------------------------



E|-------------------------------------------------------------------------------
B|--8--8--8--10--7--8--10--7--8--12--12--12--12--12--10--12--12--12--12--12--13--
G|-------------------------------------------------------------------------------
D|-------------------------------------------------------------------------------
A|-------------------------------------------------------------------------------
E|-------------------------------------------------------------------------------



E|--------------
B|--3-----3-----
G|-----0-----0--
D|--------------
A|--------------
E|--------------



E|-----0--1--2--2--
B|--0--------------
G|-----------------
D|-----------------
A|-----------------
E|-----------------



E|-3-----3-----3---2-----2-----2---5-----5-----5---3-----3-----3---
B|---3-----3-----3---3-----3-----3---3-----3-----3---3-----3-----3-
G|-----0-----0---------0-----0---------0-----0---------0-----0-----
D|-----------------------------------------------------------------
A|-----------------------------------------------------------------
E|-----------------------------------------------------------------



E|------------------------
B|--8--8--7--7--5--5/8\3--
G|------------------------
D|------------------------
A|------------------------
E|------------------------



E|--10-----------10-----------10-----------10-----------
B|------8--7--8------8--7--8------8--7--8------8--7--8--
G|------------------------------------------------------
D|------------------------------------------------------
A|------------------------------------------------------
E|------------------------------------------------------
http://www.guitartabcreator.com
Guitar Tab Creator is intended to store guitar tab created through the tool. It currently does not support in-line text editing. Any text you place in here will be lost. If you need to comment on your tab, please use the "Tab Notes" section located below.