Raindrops

(/) Slide Up  (\) Slide Down  (h) Hammer On  (p) Pull Off  (b) Bend (r) Release (v) Vibrato


E|--7--10--7--7---------7-------7--9---9---|--7--10--7--7---------7-------7--9---9---|--
B|--8---------7--10--7--10--10-----10--10--|--8---------7--10--7--10--10-----10--10--|--
G|--9---------7---------7----------9---9---|--9---------7---------7----------9---9---|--
D|--9---------9---------7----------7---7---|--9---------9---------7----------7---7---|--
A|--7---------9---------9----------7---7---|--7---------9---------9----------7---7---|--
E|--7---------7---------10---------7---7---|--7---------7---------10---------7---7---|--



E|--7--10--7-----7------------7-------7--9---9---|--7--7--7--7--7--7--7--|--
B|--8---------7--7--10--7-----10--10-----10--10--|--7--7--7--7--7--7--7--|--
G|--9------------7---------7--7----------9---9---|--7--7--7--7--7--7--7--|--
D|--9------------9------------7----------7---7---|--9--9--9--9--9--9--9--|--
A|--7------------9------------9----------7---7---|--9--9--9--9--9--9--9--|--
E|--7------------7------------10---------7---7---|--7--7--7--7--7--7--7--|--



E|--10--12--10--9--7------------------|--10--12--10--9--10--12--15--12------|--
B|--------------------8-----------10--|-------------------------12--10--10--|--
G|-----------------------9--7--9------|---------------------------------9---|--
D|--------------7-----------------7---|--------------7------------------7---|--
A|--7--------------------7------------|--7----------------------------------|--
E|------------------------------------|-------------------------------------|--



E|--10--12--10--9--7--|--
B|-----------------7--|--
G|-----------------7--|--
D|--------------7--9--|--
A|--7--------------9--|--
E|-----------------7--|--
http://www.guitartabcreator.com
Guitar Tab Creator is intended to store guitar tab created through the tool. It currently does not support in-line text editing. Any text you place in here will be lost. If you need to comment on your tab, please use the "Tab Notes" section located below.