Noah - Sexy and I know it

(/) Slide Up  (\) Slide Down  (h) Hammer On  (p) Pull Off  (b) Bend (r) Release (v) Vibrato

E|-------------3---5-|-------------3---5-|-
B|-------------3---5-|-------------3---5-|-
G|-------------4---6-|-------------4---6-|-
D|---2-----2---3---5-|---2-----2---3---5-|-
A|---2-----2---5---7-|---2-----2---5---7-|-
E|-0---0-3---3-3-5-5-|-0---0-3---3-3-5-5-|-



E|---------3-5-5-|---------3-5-5-|---------3-5-5-|---------3-5-5-|-
B|---------3-5-5-|---------3-5-5-|---------3-5-5-|---------3-5-5-|-
G|---------4-6-6-|---------4-6-6-|---------4-6-6-|---------4-6-6-|-
D|---2-2---3-5-5-|---2-2---3-5-5-|---2-2---3-5-5-|---2-2---3-5-5-|-
A|---2-2---5-7-7-|---2-2---5-7-7-|---2-2---5-7-7-|---2-2---5-7-7-|-
E|-0-----3-3-5-5-|-0-----3-3-5-5-|-0-----3-3-5-5-|-0-----3-3-5-5-|-



E|-----------3-5-5-|-----------3-5-5-|-----------3-5-|-7-7-7-7-7-7\|-
B|-----------3-5-5-|-----------3-5-5-|-----------3-5-|-7-7-7-7-7-7-|-
G|-----------4-6-6-|-----------4-6-6-|-----------4-6-|-8-8-8-8-8-8-|-
D|---2---2---3-5-5-|---2---2---3-5-5-|---2---2---3-5-|-7-7-7-7-7-7-|-
A|---2---2---5-7-7-|---2---2---5-7-7-|---2---2---5-7-|-9-9-9-9-9-9-|-
E|-0---0---3-3-5-5-|-0---0---3-3-5-5-|-0---0---3-3-5-|-7-7-7-7-7-7-|-



E|---------|---------|---------|---------|---------|---------|-3-3-3-3-|-5-5-5-5-|-
B|---------|---------|---------|---------|---------|---------|-3-3-3-3-|-5-5-5-5-|-
G|---------|---------|---------|---------|---------|---------|-4-4-4-4-|-6-6-6-6-|-
D|-2-2-2-2-|-2-2-2-2-|-2-2-2-2-|-2-2-2-2-|-2-2-2-2-|-2-2-2-2-|-3-3-3-3-|-5-5-5-5-|-
A|-2-2-2-2-|-2-2-2-2-|-2-2-2-2-|-2-2-2-2-|-2-2-2-2-|-2-2-2-2-|-5-5-5-5-|-7-7-7-7-|-
E|---------|---------|---------|---------|---------|---------|-3-3-3-3-|-5-5-5-5-|-



E|-------------|-3-3-3-3-|-5-5-5-5-|-------------|-3-3-3-3-|-5-5-5-5-|-7-7-7-7-|-7-7-7-7\|-
B|-------------|-3-3-3-3-|-5-5-5-5-|-------------|-3-3-3-3-|-5-5-5-5-|-7-7-7-7-|-7-7-7-7-|-
G|-------------|-4-4-4-4-|-6-6-6-6-|-------------|-4-4-4-4-|-6-6-6-6-|-8-8-8-8-|-8-8-8-8-|-
D|-2-2-2-2-2-2-|-3-3-3-3-|-5-5-5-5-|-2-2-2-2-2-2-|-3-3-3-3-|-5-5-5-5-|-7-7-7-7-|-7-7-7-7-|-
A|-2-2-2-2-2-2-|-5-5-5-5-|-7-7-7-7-|-2-2-2-2-2-2-|-5-5-5-5-|-7-7-7-7-|-9-9-9-9-|-9-9-9-9-|-
E|-------------|-3-3-3-3-|-5-5-5-5-|-------------|-3-3-3-3-|-5-5-5-5-|-7-7-7-7-|-7-7-7-7-|-



E|--
B|--
G|--
D|--
A|--
E|--
http://www.guitartabcreator.com
Guitar Tab Creator is intended to store guitar tab created through the tool. It currently does not support in-line text editing. Any text you place in here will be lost. If you need to comment on your tab, please use the "Tab Notes" section located below.