New Nips

(/) Slide Up  (\) Slide Down  (h) Hammer On  (p) Pull Off  (b) Bend (r) Release (v) Vibrato
E|----------------------------------------------7--8--12--11--8--7--8--11--15--11--8--7--8--11--
B|------------------------------------7--8--10--------------------------------------------------
G|------------------------------8--9------------------------------------------------------------
D|--------------------7--9--10------------------------------------------------------------------
A|--------6--7--9/10----------------------------------------------------------------------------
E|--7--8----------------------------------------------------------------------------------------



E|-12-11-8-7-8-11-19-------------------------------------------------------------------------
B|-------------------7h8h7---7---------------------------------------------------------------
G|-------------------------9---9-8----8------------------------------------------------------
D|---------------------------------10---9-10-7-9h10h9h7-10-9-----------------4-4-4-4-5-5-5-5-
A|------------------------------------------------------8--7-6-6-6-6-7-7-7-7-----------------
E|------------------------------------------------------8--7---------------------------------



E|------------------------------------------------
B|------------------------------------------------
G|---------------------------------------------8--
D|-------------------------------------7h10h7-----
A|--2h3h2-----2-----------6h7h6h7h6h7-------------
E|---------5-----5--7--8--------------------------



E|-----------------------------------------------------------------------------------
B|-----------------------------------------------------------------------------------
G|-----------------------------------------------------------------------------------
D|-6-----------6-----------6-----------6-------7---6-----------6-----------6-7-9-7---
A|---8-7-5-7-8---8-7-5-7-8---8-7-5-7-8---8-7-5---5---8-7-5-7-8---8-7-5-7-8-----------
E|-----------------------------------------------------------------------------------



E|---------------------------------------------------------------------------------------------
B|---------------------------------------------------------------------------------------------
G|---------------------------------------------------------------------------------------------
D|-6-----------6-----------6-----------6-------7---6-----------6-----------6-7-9-7-6-----------
A|---8-7-5-7-8---8-7-5-7-8---8-7-5-7-8---8-7-5---5---8-7-5-7-8---8-7-5-7-8-----------8-7-5-----
E|-----------------------------------------------------------------------------------------7-4-



E|--------------------------------------------------------------------------------------------------------------------------
B|--------------------------------------------------------------------------------------------------------------------------
G|--------------------------------------------------------------------------------------------------------------------------
D|--3-----------------3-----------------3-----------------3-----------4-----3-----------------3-----------------------4-----
A|-----5--4--2--4--5-----5--4--2--4--5-----5--4--2--4--5-----5--4--2-----2-----5--4--2--4--5-----5--4--------------------7--
E|--------------------------------------------------------------------------------------------------------------------------



E|-------------------------------------------------------------------------------------------
B|-------------------------------------------------------------------------------------------
G|---------------------7-6-4-----------------------------------------------------------------
D|---------3-----------5-4-2---6-----------6-----------6-----------6-------7---6-------------
A|-4-2-4-5---5-4-2-4-5-5-4-2-4---8-7-5-7-8---8-7-5-7-8---8-7-5-7-8---8-7-5---5---8-7-5-7-8---
E|---------------------------4---------------------------------------------------------------



E|---------------------------------------------------------------------------------------------
B|---------------------------------------------------------------------------------------------
G|---------------------------------------------------------------------------------------------
D|-6-----------6-7-9-7-6-----------6-----------6-----------6-------7---6-----------6-----------
A|---8-7-5-7-8-----------8-7-5-7-8---8-7-5-7-8---8-7-5-7-8---8-7-5---5---8-7-5-7-8---8-7-5-7-8-
E|---------------------------------------------------------------------------------------------



E|-------------------------
B|-------------------------
G|-------------------------
D|-6-7-9-7-6-----------6-3-
A|-----------8-7-5-----4-1-
E|-----------------7-4-4-1-



E|-------------------------------------------------------------------------------
B|-------------------------------------------------------------------------------
G|------------------------------------8------------------------------------------
D|-----------------------------7h10h7-------------------------------7-10-7-------
A|-2h3h2---2-------6h7h6h7h6h7----------2h3h2---2-------6-7-6-7-6-7--------6-3---
E|-------5---5-7-8----------------------------5---5-7-8--------------------4-1---



E|-----------------------------------------------------------12-11-8-7-8-11-15-11-8-7-8-
B|--------------------------------------------------------------------------------------
G|--------------------------------------------------------------------------------------
D|--------------------------------------------------------------------------------------
A|-6-3-6-------------6-3-6-------------6-3-6-------------6-3----------------------------
E|-4-1-4-1-1-1-1-1-1-4-1-4-1-1-1-1-1-1-4-1-4-1-1-1-1-1-1-4-1----------------------------



E|---------------------------------------------------------------------------
B|---------------------------------------------------------------------------
G|---------------------------------------------------------------------------
D|-----------------------------------------------------------6-------3-------
A|-6-3-6-------------6-3-6-------------6-3-6-------------6-3---8-7-5---5-4-2-
E|-4-1-4-1-1-1-1-1-1-4-1-4-1-1-1-1-1-1-4-1-4-1-1-1-1-1-1-4-1-----------------



E|-----------------------------------------------------------
B|-----------------------------------------------------------
G|-----------------------------------------------------------
D|-----------------------------------------------------------
A|-6-3-6-------------6-3-6-------------6-3-6-------------6-3-
E|-4-1-4-1-1-1-1-1-1-4-1-4-1-1-1-1-1-1-4-1-4-1-1-1-1-1-1-4-1-



E|-------------------------------------------------
B|-------------------------------------------------
G|-------------------------------------------------
D|-------6-3-3-------6-3-3-------6-3-3-------6-3-3-
A|-6-3-3-------6-3-3-------6-3-3-------6-3-3-------
E|-4-1-1-4-1-1-4-1-1-4-1-1-4-1-1-4-1-1-4-1-1-4-1-1-



E|-----------------------------------------------------------------------------------
B|-----------------------------------------------------------------------------------
G|-----------------------------------------------------------------------------------
D|-----------------------------------------------------------------------------------
A|---------7-------7-----------7-10-7--------------------------------6-6-6-6-6-6-6-6-
E|-0-0-0-0---0-0-0---0-0-0-0-0--------0----0-0-0-0-3-6-3-0-0-3-0-3-0-----------------



E|-------------------------------------------------------------------------
B|-------------------------------------------------------------------------
G|-----------------------------------------------------4-------------------
D|-----------------------------------------------3-6-3---6-3---------------
A|---------7-------7-------7---------------0-2-5-------------5-2-----------
E|-0-0-0-0---0-0-0---0-0-0---0-0-0-0-0-1-4-----------------------4-4-4-4-4-



E|----------------------------------------------------------------------
B|----------------------------------------------------------------------
G|-----------------------------------------------------4----------------
D|-----------------------------------------------3-6-3----6--3----------
A|---------7-------7-------7---------------0-2-5----------------5--2----
E|-0-0-0-0---0-0-0---0-0-0---0-0-0-0-0-1-4----------------------------4-



E|-----------------------------------------------------------------
B|-----------------------------------------------------------------
G|---------------------------------------------------------------4-
D|-------------------3-------------------------------3-----3-6-3---
A|-------------5-2-5---5-2---------------------5-2-5---5-2---------
E|-0-1-4-0-1-4-------------4-1-4-1-0-1-4-0-1-4---------------------



E|---------------------------------------------------------------------
B|---------------------------------------------------------------------
G|---------------------------------------------------------------------
D|-------------------3-------------------------------3-----3-6-3-------
A|-------------5-2-5---5-2---------------------5-2-5---5-2-------2-5-2-
E|-0-1-4-0-1-4-------------4-1-4-1-0-1-4-0-1-4-------------------------



E|-----------------------------------------------------------------
B|-----------------------------------------------------------------
G|---------------------------------------------------------------4-
D|-------------------3-------------------------------3-----3-6-3---
A|-------------5-2-5---5-2---------------------5-2-5---5-2---------
E|-0-1-4-0-1-4-------------4-1-4-1-0-1-4-0-1-4---------------------



E|---------------------------------------------------------------
B|---------------------------------------------------------------
G|---------------------------------------------------------------
D|-------------------3-------------------------------9-6---------
A|-------------5-2-5---5-2---------------------5-2-5-----8-5-----
E|-0-1-4-0-1-4-------------4-1-4-1-0-1-4-0-1-4---------------7-4-
http://www.guitartabcreator.com
Guitar Tab Creator is intended to store guitar tab created through the tool. It currently does not support in-line text editing. Any text you place in here will be lost. If you need to comment on your tab, please use the "Tab Notes" section located below.