Rage

(/) Slide Up  (\) Slide Down  (h) Hammer On  (p) Pull Off  (b) Bend (r) Release (v) Vibrato

E|--------------------------------------------------------
B|--------------------------------------------------------
G|--------------------------------------------------------
D|--10--10--10--10--10--10--12--12--12--6--6--6--0--0--0--
A|--7---7---7---8---8---8---12--12--12--6--6--6--0--0--0--
E|--7---7---7---8---8---8---12--12--12--6--6--6--0--0--0--



E|-----------------------------------------------------------------
B|-----------------------------------------------------------------
G|-----------------------------------------------------------------
D|--6--6--6--0--0--0--6--6--6--0--0--0--6--6--6--0--0--0--6--6--6--
A|--6--6--6--0--0--0--6--6--6--0--0--0--6--6--6--0--0--0--6--6--6--
E|--6--6--6--0--0--0--6--6--6--0--0--0--6--6--6--0--0--0--6--6--6--



E|-----------------------------------------------------------------
B|-----------------------------------------------------------------
G|-----------------------------------------------------------------
D|--0--0--0--10--10--10--10--10--10--12--12--12--6--6--6--0--0--0--
A|--0--0--0--7---7---7---8---8---8---12--12--12--6--6--6--0--0--0--
E|--0--0--0--7---7---7---8---8---8---12--12--12--6--6--6--0--0--0--



E|-----------------------------------------------------------------
B|-----------------------------------------------------------------
G|-----------------------------------------------------------------
D|--6--6--6--0--0--0--6--6--6--0--0--0--6--6--6--0--0--0--6--6--6--
A|--6--6--6--0--0--0--6--6--6--0--0--0--6--6--6--0--0--0--6--6--6--
E|--6--6--6--0--0--0--6--6--6--0--0--0--6--6--6--0--0--0--6--6--6--



E|-----------------------------------------------------
B|-----------------------------------------------------
G|-----------------------------------------------------
D|-----------------------8--5--6--5--6--5--8--5--6--5--
A|-----------------------8--5--6--5--6--5--8--5--6--5--
E|--0--0----0--0----0----8--5--6--5--6--5--8--5--6--5--



E|-------------------------------------
B|-------------------------------------
G|-------------------------------------
D|----8--5--6--5--6--5--8--5--6--5/12--
A|----8--5--6--5--6--5--8--5--6--5-12--
E|----8--5--6--5--6--5--8--5--6--5-12--
http://www.guitartabcreator.com
Guitar Tab Creator is intended to store guitar tab created through the tool. It currently does not support in-line text editing. Any text you place in here will be lost. If you need to comment on your tab, please use the "Tab Notes" section located below.