Breakdown2

(/) Slide Up  (\) Slide Down  (h) Hammer On  (p) Pull Off  (b) Bend (r) Release (v) Vibrato

E|-----------------------------------------------------------------------------------------------
B|-----------------------------------------------------------------------------------------------
G|-----------------------------------------------------------------------------------------------
D|-------------------------10--10--10--10---------------------------10--10--10-------------------
A|--0--0--0--0--0----0--0--7---7---8---8-----0--0--0--0--0----0--0--8---8---7-----0--0--0--0--0--
E|--0--0--0--0--0----0--0--7---7---8---8-----0--0--0--0--0----0--0--8---8---7-----0--0--0--0--0--



E|-----------------------------------------------------
B|-----------------------------------------------------
G|-----------------------------------------------------
D|----------8--8--7--7---------------------------5--3--
A|----0--0--8--8--7--7----0--0--0--0--0----0--0--5--3--
E|----0--0--8--8--7--7----0--0--0--0--0----0--0--5--3--
http://www.guitartabcreator.com
Guitar Tab Creator is intended to store guitar tab created through the tool. It currently does not support in-line text editing. Any text you place in here will be lost. If you need to comment on your tab, please use the "Tab Notes" section located below.