Actual Song

(/) Slide Up  (\) Slide Down  (h) Hammer On  (p) Pull Off  (b) Bend (r) Release (v) Vibrato

E|---------------------------------------------------------------------------------------------
B|---------------------------------------------------------------------------------------------
G|---------------------------------------------------------------------------------------------
D|--10--10--10--10--10--10--10--10--10--10--10--10--10--10--10--10--8--8--8--8--8--8--8--8-----
A|---------------------------------------------------------------------------------------------
E|---------------------------------------------------------------------------------------------



E|----------------------------------------------------------------------------------
B|----------------------------------------------------------------------------------
G|----------------------------------------------------------------------------------
D|--13--13--13--13--13--13--13--13--6--6--6--6--6--6--6--6--6--6--6--6--6--6--6--6--
A|----------------------------------------------------------------------------------
E|----------------------------------------------------------------------------------



E|----------------------------------------------------------
B|----------------------------------------------------------
G|----------------------------------------------------------
D|----------------------------------------------------------
A|--8--8--8--8--8--8--8--8--10--10--10--10--10--10--10--10--
E|----------------------------------------------------------



E|------------------------------------------------------------------------------------------
B|------------------------------------------------------------------------------------------
G|------------------------------------------------------------------------------------------
D|--10--10--10--10--10--10--10--10--10--10--10--10--10--10--10--10--8--8--8--8--8--8--8--8--
A|------------------------------------------------------------------------------------------
E|------------------------------------------------------------------------------------------



E|----------------------------------------------------------------------------------
B|----------------------------------------------------------------------------------
G|----------------------------------------------------------------------------------
D|--13--13--13--13--13--13--13--13--6--6--6--6--6--6--6--6--6--6--6--6--6--6--6--6--
A|----------------------------------------------------------------------------------
E|----------------------------------------------------------------------------------



E|------------------------------------
B|------------------------------------
G|------------------------------------
D|------------------------------------
A|--8--8--8--8--8--8--8--8--10--6--8--
E|------------------------------------



E|---------------------------------------------------------------------
B|---------------------------------------------------------------------
G|---------------------------------------------------------------------
D|--10--10--10--10--10--10--10--10--10--10--10--10--10--10--10--10-----
A|---------------------------------------------------------------------
E|---------------------------------------------------------------------



E|------------------------------------------------------------------
B|------------------------------------------------------------------
G|------------------------------------------------------------------
D|--13--13--13--13--13--13--13--13--15--15--15--15--15--15--15--15--
A|------------------------------------------------------------------
E|------------------------------------------------------------------



E|------------------------------------------------------------------
B|------------------------------------------------------------------
G|------------------------------------------------------------------
D|--17--17--17--17--17--17--17--17--17--17--17--17--17--17--17--17--
A|------------------------------------------------------------------
E|------------------------------------------------------------------



E|-----------------------------------------------------------------
B|-----------------------------------------------------------------
G|-----------------------------------------------------------------
D|--15--15--15--15--15--15--15--15--13--13--13--13--13--13--8--10--
A|-----------------------------------------------------------------
E|-----------------------------------------------------------------
http://www.guitartabcreator.com
Guitar Tab Creator is intended to store guitar tab created through the tool. It currently does not support in-line text editing. Any text you place in here will be lost. If you need to comment on your tab, please use the "Tab Notes" section located below.