Acoustic

(/) Slide Up  (\) Slide Down  (h) Hammer On  (p) Pull Off  (b) Bend (r) Release (v) Vibrato

E|------------------------------------------------------
B|------------------------------------------------------
G|------------------------------------------------------
D|--10--10--5--5--10--10--5--5--3-----------------------
A|--8---7---5--3--8---7---5--3--3-----------------------
E|--7---7---5--3--7---7---5--3--3--3--3--3--3--3--3--3--



E|------------------------------------------------------
B|------------------------------------------------------
G|------------------------------------------------------
D|--10--10--5--5--10--10--5--5--3-----------------------
A|--8---7---5--3--8---7---5--3--3-----------------------
E|--7---7---5--3--7---7---5--3--3--3--3--3--3--3--3--3--



E|-------------------------------------------------------------------------
B|-------------------------------------------------------------------------
G|--10--9-----------------------------10--9--------------------------------
D|---------5--3------------------------------5--5--3-----------------------
A|--8------5--3-----------------------8------5--3--3-----------------------
E|--7---7--5--3--3--3--3--3--3--3--3--7---7--5--3--3--3--3--3--3--3--3--3--



E|----------------------------------------------------
B|----------------------------------------------------
G|--10--9-----------------------------10--9-----------
D|---------5--3------------------------------5--5--3--
A|--8------5--3-----------------------8------5--3--3--
E|--7---7--5--3--3--3--3--3--3--3--3--7---7--5--3--3--
http://www.guitartabcreator.com
Guitar Tab Creator is intended to store guitar tab created through the tool. It currently does not support in-line text editing. Any text you place in here will be lost. If you need to comment on your tab, please use the "Tab Notes" section located below.