Parallel Spirit (Bass)

(/) Slide Up  (\) Slide Down  (h) Hammer On  (p) Pull Off  (b) Bend (r) Release (v) Vibrato

G|---------------------------------------------------------------------------------
D|---------------------------------------------------------------------------------
A|--------------------------------------------------------------------5------------
E|--0----------0--0------------0--0------------0--0----------3-----------3--0------



G|-------------------------------------------
D|--------------------------0----------0-----
A|-------------------------------------------
E|--0----------0--------------------------5--



G|-------------------------------------------
D|--------------------------0------0---0-----
A|-------------------------------------------
E|--0----------0------------------3-3-2-2-0--



G|--------------------------------------------
D|--------------------------------------------
A|--2--0--3--2-----2--2--0--------0--2--0--0--
E|--------------0-----------2--3--------------



G|------------------5--5h7--7/9--9/12--11--
D|--5h7--7--7/9--9-------------------------
A|-----------------------------------------
E|-----------------------------------------
http://www.guitartabcreator.com
Guitar Tab Creator is intended to store guitar tab created through the tool. It currently does not support in-line text editing. Any text you place in here will be lost. If you need to comment on your tab, please use the "Tab Notes" section located below.