Decay (Guitar 1)

(/) Slide Up  (\) Slide Down  (h) Hammer On  (p) Pull Off  (b) Bend (r) Release (v) Vibrato
E|--------------------------------------------------------|--
B|--------------------------------------------------------|--
G|--5-----------------------------5-----------------------|--
D|--5--5--2-----------------------5--5--2---------0h2--0--|--
A|--3--5--2----------------0h2----3--5--2----0h2----------|--
E|-----3--0----0--0--0--0------------3--0-----------------|--



E|--------------------------------------------------------------------------------------------------
B|--------------------------------------------------------------------------------------------------
G|--------------------------------------------------------------------------------------------------
D|--2--0--0--0--0--0--2--0--0--0--0--0--2--0--0--0--0--0--2--0--0--0--0--0--2--0--0--0--2--0--0--0--
A|--------------------------------------------------------------------------------------------------
E|--------------------------------------------------------------------------------------------------



E|--------------------------------------------------------|-----
B|--------------------------------------------------------|-----
G|--------------------------------------------------------|-----
D|--5--0--0--0--0--0--5--0--0--0--0--0--4--0--0--0--0--0--|-----
A|--------------------------------------------------------|-----
E|--------------------------------------------------------|-----



E|--------------------------------------------
B|--------------------------------------------
G|--------------------------------------------
D|--4--0--0--0--0--0--4--0--0--0--4--0--0--0--
A|--------------------------------------------
E|--------------------------------------------



E|------------------------------------
B|------------------------------------
G|------------------------------------
D|--5--5/7--7--7--7--7--7/9--9--9--9--
A|------------------------------------
E|------------------------------------



E|-------------------------------------7/10-----------------------|--
B|--7/10--10--10v----10--10--10--10----------7--8v----8--8--8--8--|--
G|----------------------------------------------------------------|--
D|----------------------------------------------------------------|--
A|----------------------------------------------------------------|--
E|----------------------------------------------------------------|--



E|-----------------------------------------------
B|-----------------------------------------------
G|-----------------------------------------------
D|-----------------------------------------------
A|-----7h9-----9h10-----7h9-----9h10-----7h9h10--
E|--0-------0--------0-------0--------0----------



E|--------------------------------------|--
B|--------------------------------------|--
G|--------------------------------------|--
D|-----7h9-----9h10-----10p9-----9p7h9--|--
A|--0-------0--------0--------0---------|--
E|--------------------------------------|--



E|--------------------------------------------------------------------------------
B|--------------------------------------------------------------------------------
G|--------------------------------------------------------------------------------
D|--5--------------5--------------5--------------5--------------5--------5--------
A|--5--------------5--------------5--------------5--------------5--------5--------
E|--3--3--3--3--3--3--3--3--3--3--3--3--3--3--3--3--3--3--3--3--3--3--3--3--3--3--



E|--------------------------------------------------------------------------------
B|--------------------------------------------------------------------------------
G|--7--------------7--------------------------------------------------------------
D|--7--------------7--------------9--------------9--------------9--------9--------
A|--5--5--5--5--5--5--5--5--5--5--9--------------9--------------9--------9--------
E|--------------------------------7--7--7--7--7--7--7--7--7--7--7--7--7--7--7--7--



E|--------------------------------------------------------------------------------|--
B|--------------------------------------------------------------------------------|--
G|--------------------------------------------------------------------------------|--
D|--4--------------4--------------4--------------4--------------4--------4--------|--
A|--------------------------------------------------------------------------------|--
E|--2--2--2--2--2--2--2--2--2--2--2--2--2--2--2--2--2--2--2--2--2--2--2--2--2--2--|--



E|-----------
B|-----------
G|--7--9-----
D|--7--9--7--
A|--5--7--7--
E|--------5--



E|-----------------------------------------------------|--
B|-----------------------------------------------------|--
G|-----------------------------------------------------|--
D|--10--7--7--9--7--7--10--7--7--9--7--7--10--7--9--7--|--
A|-----------------------------------------------------|--
E|-----------------------------------------------------|--



E|--------------------------------------------
B|--------------------------------------------
G|--------------------------------------------
D|--10--7--7--9--9--9--9--9--9--9/13--16--14--
A|--------------------------------------------
E|--------------------------------------------



E|--------------------------------------------------------------------------------------------------
B|--------------------------------------------------------------------------------------------------
G|--------------------------------------------------------------------------------------------------
D|--17--14--16--14--16--14--14--16--14--14--16--14--16--14--16--------------------------------------
A|--------------------------------------------------------------17--17--17--17--15--15--15--15--15--
E|--------------------------------------------------------------------------------------------------



E|----------------------------------------------------------------------------------------------
B|----------------------------------------------------------------------------------------------
G|--------------------------------------------------------------14h16--16--16--16--16--16--14v--
D|--17--14--16--14--16--14--14--16--14--14--16--14--16--14--16----------------------------------
A|----------------------------------------------------------------------------------------------
E|----------------------------------------------------------------------------------------------



E|--15--12--14--12------12--------------------------15--12--14--12------12-----------------------------
B|------------------15------15--12--15--12------12------------------15------15--12--15--12------12h15--
G|------------------------------------------15----------------------------------------------15---------
D|-----------------------------------------------------------------------------------------------------
A|-----------------------------------------------------------------------------------------------------
E|-----------------------------------------------------------------------------------------------------



E|--15h17--17--17--17--17--17--17--17--17--17--17--17--17/19--19--19--19--17--
B|--15-----15--15--15--15--15--15--15--15--15--15--15--15-17--17--17--17--17--
G|------------------------------------------------------------------------17--
D|----------------------------------------------------------------------------
A|----------------------------------------------------------------------------
E|----------------------------------------------------------------------------



E|--20--20--20--20--19--19--19--19--17--17--17--17--19--19--19--19------------------19--19--19--19--17--17--17--17--19--19--19--19--20--20--20--20--20--20--20--20/
B|------------------------------------------------------------------20--20--20--20---------------------------------------------------------------------------------
G|-----------------------------------------------------------------------------------------------------------------------------------------------------------------
D|-----------------------------------------------------------------------------------------------------------------------------------------------------------------
A|-----------------------------------------------------------------------------------------------------------------------------------------------------------------
E|-----------------------------------------------------------------------------------------------------------------------------------------------------------------



E|--
B|--
G|--
D|--
A|--
E|--
http://www.guitartabcreator.com
Guitar Tab Creator is intended to store guitar tab created through the tool. It currently does not support in-line text editing. Any text you place in here will be lost. If you need to comment on your tab, please use the "Tab Notes" section located below.