Decay (Bass)

(/) Slide Up  (\) Slide Down  (h) Hammer On  (p) Pull Off  (b) Bend (r) Release (v) Vibrato

G|--------------------------------------------|--
D|--------------------------------------------|--
A|--3----------3----------3----------3--------|--
E|-----3--0-------3--0-------7--5-------7--5--|--



G|-----------------------------------------------
D|-----------------------------------------------
A|-----7h9-----9h10-----7h9-----9h10-------------
E|--0-------0--------0-------0-------------------



G|--------------------------------------
D|-----7h9-----9h10------7p9-----9h10---
A|--0-------0--------0--------0---------
E|--------------------------------------



G|-----------------------------------------------------|--
D|-----------------------------------------------------|--
A|--------------------5--5-----------------------------|--
E|--3--3--3--3--3--3--------7--7--7--7--2--2--2--2--2--|--



G|-----------------------------------
D|-----------------------------------
A|----------5-----5--5h7-------------
E|--5h7--5-----7----------7--5v------



G|-----------
D|-----------
A|--5--7-----
E|--------5--



G|------------------------------------------------
D|------------------------------------------------
A|--0------0--0------0--0------0--0------6--9--7--
E|------------------------------------------------



G|-----------------------------------------------------------------------
D|--0h2--0--2--0--2--0--0--0h2--0--2--0--2--0--0-------------------------
A|-----------------------------------------------------------------------
E|------------------------------------------------0h3--3--3--3--3--3--2--



G|------------------------------------------------2h4--4--4--4--4--4--2--
D|--0h2--0--2--0--2--0--0--0h2--0--2--0--2--0--0-------------------------
A|-----------------------------------------------------------------------
E|-----------------------------------------------------------------------



G|----------------------
D|-------0--------------
A|-----------------2----
E|--3---------3---------



G|------------------------------------------
D|------------------------------------------
A|-------0--0--0--0--0--0--0--0h2--2--2--0--
E|--3h5-------------------------------------



G|------------------------------------------
D|------------------------------------------
A|--3--2--0--2-----2--0--2--3--3--3--3--5v--
E|--------------3---------------------------



G|--------------------------------------------------------|--
D|--5--5--5--5--5--5--------------------------------------|--
A|--------------------5--5--------------------------------|--
E|--------------------------7--7--7--7--2--2--2--2--2--2--|--



G|--------------------7/9--9--7----------------------------7--9-----
D|--5--5--5--5--5--5-------------9--9--9--7--7--7--7h9--7--------7--
A|------------------------------------------------------------------
E|------------------------------------------------------------------
http://www.guitartabcreator.com
Guitar Tab Creator is intended to store guitar tab created through the tool. It currently does not support in-line text editing. Any text you place in here will be lost. If you need to comment on your tab, please use the "Tab Notes" section located below.