Charging Star (Bass)

(/) Slide Up  (\) Slide Down  (h) Hammer On  (p) Pull Off  (b) Bend (r) Release (v) Vibrato

G|-------------------------------------------------------
D|--------------5/7--7--7--7--5------------------7/9--7--
A|--7/9--5---------------------------7/9--5--------------
E|-------------------------------------------------------



G|------------------------------------------------------------4--5--
D|-------------------5-----5h7/9--7--5------------------5--7--------
A|--7/9--5------5h7-----7-------------------7/9--5------------------
E|------------------------------------------------------------------



G|-----2-----2----/4--2-----------0-----0----0h2--0--
D|--2-----2--------------------2-----2---------------
A|---------------------------------------------------
E|---------------------------------------------------



G|-----0-----0---------------------------------------
D|--0-----0------------------------------------------
A|---------------------------------------------------
E|---------------1/4----------1---1----0----0--------



G|-------------------------------------------------------
D|-------------------0h2--0-------------0h2--3----/5--3--
A|---------0h2--0------------------3---------------------
E|--0h3--------------------------------------------------



G|-------4h5----/7--7----5--------4h5----------------
D|--5------------------------------------5h7---------
A|----------------------------------------------7----
E|---------------------------------------------------



G|--0h2---------------------------------------
D|-----------2-----0--------------------------
A|--------------3-----2---------3----------5--
E|---------------------------1-----1----3-----



G|--0h2--------------------------------------
D|-------------2--0--2--3-----------5--------
A|-------------------------------3-----3--5--
E|-------------------------------------------



G|----------------------7----9----/12--
D|------------2----5-------------------
A|--3----5-----------------------------
E|-------------------------------------



G|--0---------------------------------------
D|-----0----2-------------------------------
A|-------------2----3-----------------5-----
E|---------------------3----0h3--0----5-----



G|----------------------7----9----/12----
D|------------2----5---------------------
A|--3----5-------------------------------
E|---------------------------------------



G|------------------2--0----2--4--4--
D|--4--0----2--4---------------------
A|-----------------------------------
E|-----------------------------------



G|----------------------------------------
D|----------------------------------------
A|--7--------5--------3----------2--------
E|----------------------------------------



G|-------------------7---------------------------------------------
D|-----9-----------------------------5-----------------------------
A|--7-----7--7----5-----5--5------3-----3--3--------2--3--2--3--5--
E|-----------------------------------------------------------------



G|-----------------------------------------------------------------------------
D|--9--9--9-------------7--7--7-------------5--5--5----------------------------
A|---------------------------------5-------------------3--------2--3--2--3--5--
E|-------------0---------------------------------------------------------------



G|------------7---------------9----------------12--12----11--11--
D|-------9-------------------------------12----------------------
A|--7--------------9----12---------10----------------------------
E|---------------------------------------------------------------



G|------------------------------------------------------------------------------
D|------------------------------------------------------------------------------
A|--7--------5--------3------------------------------------------2--3--2--3--5--
E|--7--------5--------3--------2--3--2--3--5----2--3--2--3--5-------------------



G|-------------------------------------------------
D|-------------------------------------------------
A|--7--7----7--7--7----7--7--7----7--7--7--7-------
E|----------------------------------------------0--
http://www.guitartabcreator.com
Guitar Tab Creator is intended to store guitar tab created through the tool. It currently does not support in-line text editing. Any text you place in here will be lost. If you need to comment on your tab, please use the "Tab Notes" section located below.