Catacombs in Paris (Bass)

(/) Slide Up  (\) Slide Down  (h) Hammer On  (p) Pull Off  (b) Bend (r) Release (v) Vibrato

G|-------------------------------------------------------------------
D|-------------------------------------------------------------------
A|------------------10--------------------------------------------7--
E|--0----0--0--0----------8----7--------0----0--0--0----7----8-------



G|------------------------------------------------------
D|----------------------------9----7--------------------
A|--------------------------------------10----9--10--9--
E|--0----0--0--0----7----8------------------------------



G|-----------------------------------------------------
D|----------------7--9---------------------7--9--10----
A|----------7--9-----------------7--9--10--------------
E|--7----8------------------8--------------------------



G|-----------------------9/12----7h9--
D|------------------9-----------------
A|----------7--9----------------------
E|--7----8----------------------------



G|--7h9p7--------------------------------
D|---------9----9--7----7h9p7------------
A|-----------------------------10----10--
E|---------------------------------------



G|--7h9p7------------------------------
D|---------9----9--7----7h9p7-------9--
A|-----------------------------7-------
E|-------------------------------------



G|------------------------
D|-------------------7h9--
A|----------7--10---------
E|--7----8----------------



G|---------------
D|---------------
A|-------7h10----
E|--7h8----------



G|----------------
D|----------------
A|-------5h8------
E|--5h6-----------



G|-----------------2----/4--4----4----2-----------------------0h2p0----0h2--2----3----2--
D|------------2------------------------------------------0-------------------------------
A|--0----3------------------------------------------1------------------------------------
E|---------------------------------------------3-----------------------------------------



G|--
D|--
A|--
E|--
http://www.guitartabcreator.com
Guitar Tab Creator is intended to store guitar tab created through the tool. It currently does not support in-line text editing. Any text you place in here will be lost. If you need to comment on your tab, please use the "Tab Notes" section located below.