Bender of broken ribs (DROP D) (Rhythm)

(/) Slide Up  (\) Slide Down  (h) Hammer On  (p) Pull Off  (b) Bend (r) Release (v) Vibrato
E|-----0---------------------------------------------------------------------------0-----------
B|-----10--------------------------------------------------------------------------10----------
G|-----9----------------------------------------9----------------------------------9-----------
D|-----0----------------------------------------0----------0-----0-----0-----0-----0-----------
A|-----0----------------------------------------0----------------------------------------------
E|-----0----------------0-----0-----0-----0-----0----------------------------------------------



E|------------------------------------------------
B|--10-----10----10--10--10--10--10-------10--10--
G|--9-h10--9-----9---9---9---9---9-h10----9---9---
D|------------------------------------------------
A|------------------------------------------------
E|------------------------------------------------



E|-----------------------------
B|--6----6----6--6--6----6--6--
G|--7----7----7--7--7----7--7--
D|--8----8----8--8--8----8--8--
A|-----------------------------
E|-----------------------------



E|--------------------------------------------
B|------------------------------------13v-----
G|-----7-----7-----7-----7/9------------------
D|-----5-----5-----5-----5-7------------------
A|--------------------------------------------
E|--------------------------------------------
http://www.guitartabcreator.com
Guitar Tab Creator is intended to store guitar tab created through the tool. It currently does not support in-line text editing. Any text you place in here will be lost. If you need to comment on your tab, please use the "Tab Notes" section located below.