Bender of broken ribs (DROP D) (Lead 1)

(/) Slide Up  (\) Slide Down  (h) Hammer On  (p) Pull Off  (b) Bend (r) Release (v) Vibrato
E|------------------------------------------------------------------------------------------------
B|--15p10h13----15p10h13----15p10h13----15p10h13----17p10h13----17p10h13----17p10h13----17p10h13--
G|------------------------------------------------------------------------------------------------
D|------------------------------------------------------------------------------------------------
A|------------------------------------------------------------------------------------------------
E|------------------------------------------------------------------------------------------------



E|------------------------------------------------------------------------------------------------
B|--18p10h13----18p10h13----18p10h13----18p10h13----20p10h13----20p10h13----20p10h13----20p10h13--
G|------------------------------------------------------------------------------------------------
D|------------------------------------------------------------------------------------------------
A|------------------------------------------------------------------------------------------------
E|------------------------------------------------------------------------------------------------



E|----------------------------------------------------------------------
B|--17p10h13----------------17p10h13----------------17p10h13--18p10h13--
G|--------------17p10h12----------------17p10h12------------------------
D|----------------------------------------------------------------------
A|----------------------------------------------------------------------
E|----------------------------------------------------------------------



E|----------------------------------------------------------------------
B|--17p10h13----------------17p10h13----------------15p10h13--17p10h13--
G|--------------17p10h12----------------17p10h12------------------------
D|----------------------------------------------------------------------
A|----------------------------------------------------------------------
E|----------------------------------------------------------------------



E|--12------8--------------------
B|------10-----8----10----10/13--
G|-------------------------------
D|-------------------------------
A|-------------------------------
E|-------------------------------



E|--12------8-------------------------
B|------10-----8--10----10/13----10v--
G|------------------------------------
D|------------------------------------
A|------------------------------------
E|------------------------------------
http://www.guitartabcreator.com
Guitar Tab Creator is intended to store guitar tab created through the tool. It currently does not support in-line text editing. Any text you place in here will be lost. If you need to comment on your tab, please use the "Tab Notes" section located below.