Payphone

(/) Slide Up  (\) Slide Down  (h) Hammer On  (p) Pull Off  (b) Bend (r) Release (v) Vibrato

E|-----------5--3--3--2--------------------------------------
B|--0--1--3--------------3--1--1--1--0-----1--0--------0-----
G|--------------------------------------0--------2--0-----2--
D|-----------------------------------------------------------
A|-----------------------------------------------------------
E|-----------------------------------------------------------



E|-----------5--3--3--2------------------------------------------
B|--0-----3--------------3--1--1--1--0-----1--0--------0---------
G|-----5--------------------------------0--------2--0------------
D|--------------------------------------------------------7------
A|---------------------------------------------------------------
E|-----------------------------------------------------------10--



E|-----
B|-----
G|--0--
D|-----
A|-----
E|-----
http://www.guitartabcreator.com
Guitar Tab Creator is intended to store guitar tab created through the tool. It currently does not support in-line text editing. Any text you place in here will be lost. If you need to comment on your tab, please use the "Tab Notes" section located below.