Crying Lightning

(/) Slide Up  (\) Slide Down  (h) Hammer On  (p) Pull Off  (b) Bend (r) Release (v) Vibrato
E|-----------------------------------------------------------------------------------
B|-----------------------------------------------------------------------------------
G|-----------------------------------------------------------------------------------
D|--------------------0--3--------------------3--2--------------------0--5--3--2--0--
A|-----------0--2--3-----------------0--2--3-----------------0--2--3-----------------
E|--0--1--4-----------------0--1--4-----------------0--1--4--------------------------



E|-----------------------------
B|-----------------------------
G|-----------------------------
D|-----0--2--3-----------------
A|--3--------------0--2--3--0--
E|--------------4--------------



E|--------5--7\0--------5--------7-----4--5--
B|-----5-------------5--------5-----5-----5--
G|--5-------------5--------5--------------5--
D|-------------------------------------------
A|-------------------------------------------
E|-------------------------------------------



E|--------7\0--------5--------7-----4--5--7\0--------5--------7-----7/12--
B|-----5----------5--------5-----5-----5----------5--------5-----5--------
G|--5----------5--------5--------------5-------5--------5-----------------
D|------------------------------------------------------------------------
A|------------------------------------------------------------------------
E|------------------------------------------------------------------------



E|--------------------------
B|--------------------------
G|--------------------------
D|-----------------2--1-----
A|--0--0--0--0--3-----------
E|-----------------------4--



E|--------------------------
B|--------------------------
G|--------------------------
D|-----2-----1-----------1--
A|--3-----------0--2--3-----
E|--------4-----------------



E|-----------------------------
B|-----------------------------
G|-----------------------------
D|-----2-----1-----------1-----
A|--3-----------0--2--3-----0--
E|--------4--------------------



E|--------------------------------------------------------------------
B|--------------------------------------------------------------------
G|--------------------------------------------------------------------
D|-----------------2--1-----1--2--------1--2--------1--2--------1--2--
A|--0--0--0--0--3-----------------0--3--------0--3--------0--3--------
E|-----------------------4--------------------------------------------



E|--5/13--5/12--5/10--8\4--
B|-------------------------
G|-------------------------
D|-------------------------
A|-------------------------
E|-------------------------



E|--5/13--17\12--5/10--8\4--
B|--------------------------
G|--------------------------
D|--------------------------
A|--------------------------
E|--------------------------
http://www.guitartabcreator.com
Guitar Tab Creator is intended to store guitar tab created through the tool. It currently does not support in-line text editing. Any text you place in here will be lost. If you need to comment on your tab, please use the "Tab Notes" section located below.