5/13/13 Rhythm

(/) Slide Up  (\) Slide Down  (h) Hammer On  (p) Pull Off  (b) Bend (r) Release (v) Vibrato
E|-----------------------------4-----------------------------------------4-----------------
B|-----5-----------5-----------------5-----------5-----------5-----------------5-----------
G|-----------6-----------6--------------6--------------6-----------6--------------6--------
D|-----6--------6-----------6--------------6-----6--------6-----------6--------------6-----
A|--4-----4-----------4-----------4-----------4-----4-----------4-----------4--------------
E|-----------------------------------------------------------------------------------------



E|-----------------------------0--------------
B|-----2-----------2-----------------2--------
G|-----------2-----------2--------------2-----
D|-----2--------2-----------2--------------2--
A|--0-----0-----------0-----------0-----------
E|--------------------------------------------



E|-------------------------------4--------------
B|-------4-----------4-----------------4--------
G|-------------5-----------5--------------5-----
D|-------6--------6-----------6--------------6--
A|----------------------------------------------
E|--2/4-----4-----------4-----------4-----------



E|-------------------------4--4--4--4--4--
B|-----5--------2----------4--4--4--4--4--
G|-------------------------5--5--5--5--5--
D|-----6--------2----------6--6--6--6--6--
A|--4-----0--0-------------6--6--6--6--6--
E|-----------------0--2/4--4--4--4--4--4--



E|-----4--------4-----4--4--4--4--4-----4--------4--x--x--x--------------4--
B|-----5--------4-----5--4--4--4--4-----5--------4--x--x--x--------------4--
G|-----6--------5-----6--5--5--5--5-----6--------5--x--x--x--------------5--
D|-----6--------6-----6--6--6--6--6-----6--------6--x--x--x--------------6--
A|--4-----------6--4-----6--6--6--6--4-----------6--x--x--x--------------6--
E|--------0--4-----------4--4--4--4--------0--4-----x--x--x--0--2--3--4--4--



E|--0--2--5--4--
B|--0--2--5--4--
G|--1--3--6--5--
D|--2--4--7--6--
A|--2--4--7--6--
E|--0--2--5--4--
http://www.guitartabcreator.com
Guitar Tab Creator is intended to store guitar tab created through the tool. It currently does not support in-line text editing. Any text you place in here will be lost. If you need to comment on your tab, please use the "Tab Notes" section located below.