5/13/13 Lead

(/) Slide Up  (\) Slide Down  (h) Hammer On  (p) Pull Off  (b) Bend (r) Release (v) Vibrato
E|-------------------------------------------
B|------8--9---------------------------------
G|--9v--------9v--9--8--6v--6--8--4b5r4------
D|---------------------------------------6v--
A|-------------------------------------------
E|-------------------------------------------



E|-----------------------------------------------
B|-----------------------------------------------
G|-----------------------------------------------
D|--6--4-----4-----------------------------------
A|--------7-----7--4-----4--------------0--2--3--
E|--------------------7-----0--2--3--4-----------



E|---------------------------------------------------------------
B|---------------------------------------------------------------
G|-----6-----5--------6-----5-----------6-----5------------------
D|--6-----6-----6--6-----6-----6--4--6-----6-----6-----4--5--6v--
A|--------------------------------------------------7------------
E|---------------------------------------------------------------



E|---------------------------------------------------------------------------------
B|---------------------------------------------------------------------------------
G|---------------------------------------------------------------------------------
D|------------4v-----4--7v--6--7--6v--7--6--4------------4v-----4--7--7--7--7--6v--
A|--7v--6--7------7----------------------------7v--6--7------7---------------------
E|---------------------------------------------------------------------------------
http://www.guitartabcreator.com
Guitar Tab Creator is intended to store guitar tab created through the tool. It currently does not support in-line text editing. Any text you place in here will be lost. If you need to comment on your tab, please use the "Tab Notes" section located below.