Canon in D - Standard Tuning ~ Kapi

(/) Slide Up  (\) Slide Down  (h) Hammer On  (p) Pull Off  (b) Bend (r) Release (v) Vibrato
E|-----------|-----------|-----------|-----------|-----------|-----------|-----------|------------
B|--7--------|--5--------|--3--------|--2--------|--0--------|-----------|--0--------|--2---------
G|--7--------|--6--------|--4--------|--2--------|--0--------|--2--------|--0--------|--2---------
D|--0--------|-----------|-----------|-----------|-----------|--4--------|-----------|------------
A|-----------|--0--------|--2--------|-----------|-----------|--5--------|-----------|--0---------
E|-----------|-----------|-----------|--2--------|--3--------|-----------|--3--------|------------



E|---------|---------|---------|---------|---------|---------|---------|---------|-
B|-------3-|-------2-|-------3-|-------2-|-------0-|-------3-|-------0-|-------2-|-
G|-----2---|-----2---|-----4---|-----2---|-----0---|-----2---|-----0---|-----2---|-
D|---4-----|---2-----|---4-----|---4-----|---0-----|---4-----|---0-----|---2-----|-
A|-5-------|-0-------|-2-------|---------|---------|-5-------|---------|-0-------|-
E|---------|---------|---------|-2-------|-3-------|---------|-3-------|---------|-



E|-2-------|-0-------|---------|---------|---------|---------|---------|---------|-
B|-3---3---|-2---2---|-3-------|-2-------|-0-------|-3-------|-0-------|-2-------|-
G|---2---2-|---2---2-|-4---4---|-2---2---|-0---0---|-2---2---|-0---0---|-2---2---|-
D|-0-------|---------|---4---4-|---4---4-|---0---0-|---4---4-|---0---0-|---2---2-|-
A|---------|-0-------|-2-------|---------|---------|-5-------|---------|-0-------|-
E|---------|---------|---------|-2-------|-3-------|---------|-3-------|---------|-



E|-2-----2-|-0-------|---------|---------|---------|---------|---------|---------|-
B|-3---3---|-2---2---|-3-----3-|-2-------|-0-----0-|-3-------|-0-----0-|-2-------|-
G|---2-----|---2---2-|-4---4---|-2---2---|-0---0---|-2---2---|-0---0---|-2---2---|-
D|-0-------|---------|---4-----|---4---4-|---0-----|---4---4-|---0-----|---2---2-|-
A|---------|-0-------|-2-------|---------|---------|-5-------|---------|-0-------|-
E|---------|---------|---------|-2-------|-3-------|---------|-3-------|---------|-



E|-----2---|-5---3---|-2-------|-2-------|---------|-----5---|-3---7---|-5-------|-
B|-3-------|---------|-----3---|-----5---|-3---0---|-3-------|---------|-----8---|-
G|---2---2-|-------2-|-------2-|-------2-|-------0-|---2---4-|-------4-|-------6-|-
D|-0-------|---2-----|---4-----|---4-----|---0-----|-0-------|---5-----|---7-----|-
A|---------|-0-------|-2-------|---------|---------|---------|---------|---------|-
E|---------|---------|---------|-2-------|-3-------|---------|-3-------|-5-------|-



E|-----------|---------|---------|-----5-7-|-3-2-0-3-|-2-0-----|---------|-----------|-
B|-3-2-3-----|---2-----|---3-2-0-|---7-----|---------|-----3-2-|-0-------|-----------|-
G|-2-------2-|---------|---------|-6-------|---------|---------|---2-0---|-----0-----|-
D|-4-----4---|-----2-4-|-0-------|---------|---------|-0-------|-------4-|-2h4---4-2-|-
A|-5---------|-0-------|-2-------|-0-------|---------|---------|---------|-0---------|-
E|-----------|---------|---------|---------|-3-------|---------|-3-------|-----------|-



E|-----------|---------|---------|---------|---------|---------|---------|-2-3-2-0-|-
B|-----------|---------|---0-----|---------|-----0-2-|-3-2-0---|-------0-|---------|-
G|-----------|-2---2-0-|-----2-0-|-2-0-----|---0-----|-------2-|-0-------|-2-4-2-0-|-
D|-0-0h2-4-0-|---2-----|-4-------|-----4-2-|-0-------|-0-------|---4-2---|---------|-
A|-5---------|-0-------|-2-------|---------|---------|---------|---------|-0-------|-
E|-----------|---------|---------|-2-------|-3-------|---------|-3-------|---------|-



E|-----2---|-0-------|---------|---------|-7-------|---------|-7-------|-9--------|-
B|---3-3-3-|-2---2---|-----3---|-2-------|-----0---|-5---0---|-----0---|-----10-8-|-
G|---2-2-2-|-2-2---2-|---4-4-4-|-2---2---|-------0-|-7-6-----|-0-----0-|---9------|-
D|---4---4-|---------|---4---4-|---4---4-|---0-----|-0-----7-|---0-----|----------|-
A|-5-------|-0-------|-2-------|---------|---------|---------|---------|-0--------|-
E|---------|---------|---------|-2-------|-3-------|---------|-3-------|----------|-



E|-10------------|------------0-2-3-|-2---0-2-----|---------------|-------------|---------------------|---
B|-7--7-8-10-7-8-|-10---0-2-3-------|---3---------|---0-----------|---0---------|-------------------0-|---
G|---------------|------------------|-----------0-|-2---2-0---0-2-|-0---2-0-----|---------------0-2---|---
D|-0-------------|----7-------------|---------4---|---------4-----|---------4-2-|-4-2-4-2-0-2-4-------|---
A|---------------|-0----------------|-2-----------|---------------|-------------|-5-------------------|---
E|---------------|------------------|-------------|-2-------------|-3-----------|---------------------|---



E|-------------|---------0-2-3-5-|-|-2---0-2-0---|-0-----0-----|-----------0-|-2-3-2-0---10-9-10-|-
B|---0---0-2-3-|-2-0-2-3---------|-|-3-3-------3-|-2-2-3---3-2-|-3-0-2-3-3---|---------7---------|-
G|-0---2-------|-----------------|-|-2-----------|-2-----------|-------------|-------------------|-
D|-------------|-----------------|-|-0-----------|-------------|-------------|-------------------|-
A|-------------|-0---------------|-|-------------|-0-----------|-2-----------|-------------------|-
E|-3-----------|-----------------|-|-------------|-------------|-------------|-2-----------------|-



E|--7--10--9--7---------|-------------------7--9--10--|--7--10--9--10--9--7--|-----
B|--0------------10--8--|--10--8--7--8--10------------|--0-------------------|-----
G|--0-------------------|-----------------------------|--0-------------------|-----
D|----------------------|--0--------------------------|----------------------|-----
A|----------------------|-----------------------------|----------------------|-----
E|----------------------|-----------------------------|----------------------|-----



E|-9-10-12-10-9-10----9-|-|-10----------|---9-10-12-9-|-----------|---5-3-2-0-|-----------|-
B|-----------------12---|-|----7-8-10-7-|-------------|---0-2-3-0-|-----------|---8-7-5-8-|-
G|----------------------|-|-------------|-------------|-----------|-----------|-----------|-
D|----------------------|-|-0-----------|-------------|-----------|-----------|-5---------|-
A|-0--------------------|-|-------------|-0-----------|-2---------|-----------|-----------|-
E|----------------------|-|-------------|-------------|-----------|-2---------|-----------|-



E|---------5-|---7-5-----|---5-------|-|-------5-|-5-7-5-3-|-2-----2-|-2-3-2-0-|---------|-
B|-7---5-7---|-------8-7-|-5---8-7-5-|-|-7-----7-|-7-8-7-5-|-3-----3-|-3-------|-3-------|-
G|---7-------|-0---------|-----------|-|-7---7---|---------|-----4---|-2-------|---5-4-5-|-
D|-0---------|-----------|-----------|-|---7-----|---------|---4-----|---------|---------|-
A|-----------|-----------|-0---------|-|-5-------|-0-------|-2-------|---------|---------|-
E|-----------|-----------|-----------|-|---------|---------|---------|-2-------|-3-------|-



E|-------2-|-------3-|-------5-|-
B|-----3---|-----3---|-----2---|-
G|---2-----|---4-----|---2-----|-
D|-0-------|---------|---------|-
A|---------|---------|-0-------|-
E|---------|-3-------|---------|-



E|---------2-----|---------0-----|---------2-----|---------2-----|---------3-----|---------2-----|-
B|-------3---3---|-------2---2---|-------3---3---|-------2---2---|-------0---0---|-------3---3---|-
G|-----2-------2-|-----2-------2-|-----4-------4-|-----2-------2-|-----0-------0-|-----2-------2-|-
D|---4-----------|---2-----------|---4-----------|---4-----------|---0-----------|---4-----------|-
A|-5-------------|-0-------------|-2-------------|---------------|---------------|-5-------------|-
E|---------------|---------------|---------------|-2-------------|-3-------------|---------------|-



E|---------3-----|---------0-----|-|-------2-----|-------0-----|-------2-----|-------2-----|-
B|-------0---0---|-------2---2---|-|---------3---|---------2---|---------3---|---------2---|-
G|-----0-------0-|-----2-------2-|-|-----2-----2-|-----2-----2-|-----4-----4-|-----2-----2-|-
D|---0-----------|---2-----------|-|---4---------|---2---------|---4---------|---4---------|-
A|---------------|-0-------------|-|-5-----------|-0-----------|-2-----------|-------------|-
E|-3-------------|---------------|-|-------------|-------------|-------------|-2-----------|-



E|-------3-----|-------2-----|-------3-----|-------0-----|-|-2-------|-5---3---|-2-------|-2-------|-
B|---------0---|---------3---|---------0---|---------2---|-|-3---3---|-2---2---|-3---3---|-2---5---|-
G|-----0-----0-|-----2-----2-|-----0-----0-|-----2-----2-|-|---2---2-|---2---2-|---------|---2---2-|-
D|---0---------|---4---------|---0---------|---2---------|-|-0-------|---------|---4---4-|---------|-
A|-------------|-5-----------|-------------|-0-----------|-|---------|-0-------|-2-------|---------|-
E|-3-----------|-------------|-3-----------|-------------|-|---------|---------|---------|-2-------|-



E|---------|---------|---------|---0----9-|-|-10---10---|-----9---|-9---7---|-----5---|-5---3---|-
B|-3-------|-3-------|-3-------|-2---10---|-|----7----7-|---------|---------|---------|---0---0-|-
G|-4---4---|-2---2---|-4---4---|----------|-|-----------|---9---9-|---7---7-|---5---5-|---------|-
D|---0---0-|---4---4-|---0---0-|----------|-|-0---------|---------|---------|---------|---------|-
A|---------|-5-------|---------|-0--------|-|-----------|-0-------|---------|---------|---------|-
E|-3-------|---------|-3-------|----------|-|-----------|---------|-7-------|-2-------|-3-------|-



E|-----2---|-2---0---|------|---|-|-
B|---------|---------|-2v-3-|-3-|-|-
G|---2---2-|---0---0-|-0----|-2-|-|-
D|-0-------|---------|------|-4-|-|-
A|---------|---------|-0----|-5-|-|-
E|---------|-3-------|------|---|-|-
http://www.guitartabcreator.com
Guitar Tab Creator is intended to store guitar tab created through the tool. It currently does not support in-line text editing. Any text you place in here will be lost. If you need to comment on your tab, please use the "Tab Notes" section located below.