เจ้าชายนิททรา

(/) Slide Up  (\) Slide Down  (h) Hammer On  (p) Pull Off  (b) Bend (r) Release (v) Vibrato
E|--------------0--------------------------0--------|-----------------------------2--------|-----
B|-----------3-----3--2--3--3--------3--------3-----|--5--3--2--3--3--------3--------3-----|-----
G|--------2-----------------------2-----2--------2--|--------------------2-----2--------2--|-----
D|--2--4--------0--------------0--------------------|--------------------------------------|-----
A|--------------------------------------------------|--2--------------2--------------------|-----
E|--------------------------------------------------|--------------------------------------|-----



E|--2--0-----0-----------------0----------0--|--2--3--2-------------|--
B|--------3-----3--------3-------------3-----|-----------3----------|--
G|--------------------0-----0-----2h4--------|--------------2h4--2--|--
D|-------------------------------------------|----------------------|--
A|-------------------------------------------|--0----------------0--|--
E|--3--------------3-------------------------|----------------------|--
http://www.guitartabcreator.com
Guitar Tab Creator is intended to store guitar tab created through the tool. It currently does not support in-line text editing. Any text you place in here will be lost. If you need to comment on your tab, please use the "Tab Notes" section located below.