metal thing nig

(/) Slide Up  (\) Slide Down  (h) Hammer On  (p) Pull Off  (b) Bend (v) Vibrato (*) Pitch Harmonic

Intro x2:
E|---------------------------------------------------------------------------------
B|---------------------------------------------------------------------------------
G|---------------------------------------------------------------------------------
D|--------------------------------7h8p7-----------------------------6h7p6----------
A|---7h8p7---7h8p7-----7h8p7---7h8--------7h8p7---7h8p7-----7h8p7--------7/8~~~----
D|0-0-----0-0-----8-0-0-----0-0--------0-0-----0-0-----8-0-0-----0-0---------------

Verse x4:
E|---------------------------------------------------------------------------------
B|---------------------------------------------------------------------------------
G|---------------------------------------------------------------------------------
D|-----------6h7p6----------------------------6h7p6--------------------------------
A|----------------7/8------77778888----------------7/8------7777-------------------
D|0-0-00-0-00~~~-----0-0-00--------0-0-00-0-00~~~-----0-0-00----8888---------------
Guitar Tab Creator is intended to store guitar tab created through the tool. It currently does not support in-line text editing. Any text you place in here will be lost. If you need to comment on your tab, please use the "Tab Notes" section located below.