Who Wants To Live Forever "Queen" (solo)

(/) Slide Up  (\) Slide Down  (h) Hammer On  (p) Pull Off  (b) Bend (r) Release (v) Vibrato

E|--------------------------------------------------------------------------------------
B|--4\5/2\4-------8v----7----------8v----7h8--7----------7h8--8v-----7--8--8\10\12--12--
G|----------------------------9---------------------9-----------------------------------
D|-------------9-----------9---------------------9----------------9---------------------
A|--------------------------------------------------------------------------------------
E|--------------------------------------------------------------------------------------



E|---------------------------------------------------------------
B|---------------------------------------------------------------
G|--------11b12b11b12b11b12b11--9--7--9p7------------------------
D|-----9-----------------------------------9--7---------------5--
A|--9--------------------------------------------10--9--7--5--5--
E|------------------------------------------------------------3--
http://www.guitartabcreator.com
Guitar Tab Creator is intended to store guitar tab created through the tool. It currently does not support in-line text editing. Any text you place in here will be lost. If you need to comment on your tab, please use the "Tab Notes" section located below.