new

(/) Slide Up  (\) Slide Down  (h) Hammer On  (p) Pull Off  (b) Bend (r) Release (v) Vibrato

Stave 1:

E|-------------------------------------------
B|-------------------------------------------
G|-------------------------------------------
D|--------10-----9-----7-----7-----9-----10--
A|--7--7------7-----7-----7-----7-----7------
E|-------------------------------------------

Stave 2:

E|-----------------------------------------
B|-----------------------------------------
G|-----------------------------------------
D|--------7-----5-----3-----3-----5-----7--
A|--3--3-----3-----3-----3-----3-----3-----
E|-----------------------------------------

Stave 3:

E|-------------------------------------------------------------------------------
B|-------------------------------------------------------------------------------
G|-------------------------------------------------------------0--2--3-----------
D|--------9-----7-----5-----5-----7-----9-------------0--2--3-----------0--2--3--
A|--5--5-----5-----5-----5-----5-----5-------0--2--3-----------------------------
E|-------------------------------------------------------------------------------

Stave 4:

E|-------------------------------------
B|-------------------------------------
G|--------------------0--2--3----------
D|-----------0--2--3-----------0--2--3h
A|--0--2--3----------------------------
E|-------------------------------------

Stave 5:

E|---------------------------------------------------
B|---------------------------------------------------
G|---------------------------------------------5--4--
D|--7--10--9--3--7--5--5--7--5--2--2--2--2--2--5--4--
A|--7---------3--------5--------2--2--2--2--2--3--2--
E|--7---------3--------5--------2--2--2--2--2--------

Stave 6:

E|--------------------------------------------------
B|--------------------------------------------------
G|--------2--------------2--------5-----------5-----
D|-----2-----2-----2-----------5-----5-----5-----5--
A|--0-----------0-----2-----3-----------3-----------
E|--------------------------------------------------

Stave 7:

E|--------------------------------------------------
B|--------------------------------------------------
G|--------------------------------------------------
D|--------3-----5-----3-----------2-----3-----2-----
A|-----3-----3-----3-----3-----2-----2-----2-----2--
E|--3-----------------------2-----------------------

http://www.guitartabcreator.com
Guitar Tab Creator is intended to store guitar tab created through the tool. It currently does not support in-line text editing. Any text you place in here will be lost. If you need to comment on your tab, please use the "Tab Notes" section located below.