Eternal Night

(/) Slide Up  (\) Slide Down  (h) Hammer On  (p) Pull Off  (b) Bend (r) Release (v) Vibrato
E|----------------------------------------------------------------------------------------------
B|----------------------------------------------------------------------------------------------
G|----------------------------------------------------------------------------------------------
D|--7--7-----------------------5--5--------7v--------7v--v--------7--7-----------------------5--
A|--5--5--0--0--0v--2--2--2/3--3--3--5--5--5---5--5--5------5--5--5--5--0--0--0v--2--2--2/3--3--
E|--------0--0--0---2--2--2-3-------------------------------------------0--0--0---2--2--2-3-----



E|---------------------------------------------------------------------------------------------
B|---------------------------------------------------------------------------------------------
G|---------------------------------------------------------------------------------------------
D|--5--------7v--------7v--v--------7--7--------------------5--5--------7v--------7v--v--------
A|--3--5--5--5---5--5--5------5--5--5--5--0--0v--2--2--2/3--3--3--5--5--5---5--5--5------5--5--
E|----------------------------------------0--0---2--2--2-3-------------------------------------



E|-------------------------------------------------------------------------------------------------
B|-------------------------------------------------------------------------------------------------
G|-------------------------------------------------------------------------------------------------
D|--7--7-----------------------5--5--------7v--------7v--v--------7--7-----------------------5-----
A|--5--5--0--0--0v--2--2--2/3--3--3--5--5--5---5--5--5------5--5--5--5--0--0--0v--2--2--2/3--3-----
E|--------0--0--0---2--2--2-3-------------------------------------------0--0--0---2--2--2-3--------



E|------------------------------------------------------------------------------------------
B|------------------------------------------------------------------------------------------
G|------------------------------------------------------------------------------------------
D|--5--------7v--------7v--v--------7--7--------------------5--5--------7v--------7v--v-----
A|--3--5--5--5---5--5--5------5--5--5--5--0--0v--2--2--2/3--3--3--5--5--5---5--5--5---------
E|-------------------------------------0--0--0---2--2--2-3----------------------------------



E|-----------------------------------------------------------------------------------------------
B|-----------------------------------------------------------------------------------------------
G|-----------------------------------------------------------------------------------------------
D|-----------------------------------------------------------------------------------------------
A|--0v--0--3v--v--0v--0--3--2v--v--0v--0--3v--v--0v--0--3--2v--v--0v--0--3v--v--0v--0--3--2v--v--
E|--0---0--3------0---0--3--2------0---0--3------0---0--3--2------0---0--3------0---0--3--2------



E|---------------------------------
B|---------------------------------
G|---------------------------------
D|---------------------------------
A|--0v--0--3v--v--0v--0--3--2v--v--
E|--0---0--3------0---0--3--2------



E|--------------------------------------------------------------------------------------------
B|--------------------------------------------------------------------------------------------
G|--------------------------------------------------------------------------------------------
D|--------------------------------------------------------------------------------------------
A|--------5-----------3-----------5-----------3-----------5-----------3-----------5-----------
E|--0--5-----5--0--3-----3--0--5-----5--0--3-----3--0--5-----5--0--3-----3--0--5-----5--0--3--



E|--------------------------------------------------------------------------------------------
B|--------------------------------------------------------------------------------------------
G|--------------------------------------------------------------------------------------------
D|--------------------------------------------------------------------------------------------
A|--3-----------5-----------3-----------5-----------3-----------5-----------3-----------5-----
E|-----3--0--5-----5--0--3-----3--0--5-----5--0--3-----3--0--5-----5--0--3-----3--0--5-----5--



E|--------------------------------------------------------------------------------------------
B|--------------------------------------------------------------------------------------------
G|--------------------------------------------------------------------------------------------
D|--------------------------------------------------------------------------------------------
A|--------3-----------5-----------3-----------5-----------3-----------5-----------3-----------
E|--0--3-----3--0--5-----5--0--3-----3--0--5-----5--0--3-----3--0--5-----5--0--3-----3--0--5--



E|----------------------------------------------------------------------------------------------
B|----------------------------------------------------------------------------------------------
G|----------------------------------------------------------------------------------------------
D|----------------------------------------------------------------------------------------------
A|--5-----------3-----------5-----------3-----------5-----------3-----3v--v--v--5v--v--v--v--v--
E|-----5--0--3-----3--0--5-----5--0--3-----3--0--5-----5--0--3-----3--3---------5---------------



E|-----------------------------------------------------------------------------------------------
B|-----------------------------------------------------------------------------------------------
G|-----------------------------------------------------------------------------------------------
D|-----------------------------------------------------------------------------------------------
A|---------8---------4--5--7--5--4--5---------8---------2--3--5--3--2------------8---------4--5--
E|--0v--0-----0--0v--------------------0v--0-----0v--0-----------------3--0v--0-----0--0v--------



E|----------------------------------------------------------------------------------------------
B|----------------------------------------------------------------------------------------------
G|----------------------------------------------------------------------------------------------
D|----------------------------------------------------------------------------------------------
A|--7--5--4--5---------8---------2--3--5--3--2------------8---------4--5--7--5--4--5---------8--
E|--------------0v--0-----0v--0-----------------3--0v--0-----0v--0--------------------0v--0-----



E|----------------------------------------------------------------------------------------------
B|----------------------------------------------------------------------------------------------
G|----------------------------------------------------------------------------------------------
D|----------------------------------------------------------------------------------------------
A|---------2--3--5--3--2------------8---------4--5--8--5--4--5---------8---------2--3--5--3--2--
E|--0v--0-----------------3--0v--0-----0v--0--------------------0v--0-----0v--0-----------------



E|--------------------------------------------------------------------------------------------
B|--------------------------------------------------------------------------------------------
G|--------------------------------------------------------------------------------------------
D|--------------------------------------------------------------------------------------------
A|------------8---------4--5--7--5--4--5---------8---------2--3--5--3--2------------8---------
E|--3--0v--0-----0v--0--------------------0v--0-----0--0v-----------------3--0v--0-----0--0v--



E|----------------------------------------------------------------------------------------------
B|----------------------------------------------------------------------------------------------
G|----------------------------------------------------------------------------------------------
D|----------------------------------------------------------------------------------------------
A|--4--5--7--5--4--5---------8---------2--3--5--3--2------------8---------4--5--7--5--4---------
E|--------------------0v--0-----0--0v-----------------3--0v--0-----0--0v-----------------0v-----



E|----------------------------------------------------------------------------------------------
B|----------------------------------------------------------------------------------------------
G|----------------------------------------------------------------------------------------------
D|----------------------------------------------------------------------------------------------
A|-----8---------2--3--5--3--2------------8---------4--5--7--5--4--5---------8---------2--3--5--
E|--0-----0--0v-----------------3--0v--0-----0--0v--------------------0v--0-----0--0v-----------



E|----------------------------------------------------------------------------------------------
B|----------------------------------------------------------------------------------------------
G|----------------------------------------------------------------------------------------------
D|----------------------------------------------------------------------------------------------
A|--3--2------------8---------4--5--7--5--4--5---------8---------2--3--5--3--2------------8-----
E|--------3--0v--0-----0--0v--------------------0v--0-----0--0v-----------------3--0v--0-----0--



E|-----------------------------------------------------------
B|-----------------------------------------------------------
G|-----------------------------------------------------------
D|-----------------------------------------------------------
A|------4--5--7--5--4--5---------8---------2--3--5--3--2-----
E|--0v--------------------0v--0-----0--0v-----------------3--



E|-----------------------------------------------------------------------------------------------
B|-----------------------------------------------------------------------------------------------
G|-----------------------------------------------------------------------------------------------
D|-----------------------------------------------------------------------------------------------
A|--0v--0--3v--v--0v--0--3--2v--v--0v--0--3v--v--0v--0--3--2v--v--0v--0--3v--v--0v--0--3--2v--v--
E|--0---0--3------0---0--3--2------0---0--3------0---0--3--2------0---0--3------0---0--3--2------



E|---------------------------------
B|---------------------------------
G|---------------------------------
D|----------v--v--0----------------
A|--0v--0--3------0v--0--3--2v--v--
E|--0---0--3------0---0--3--2------



E|-----------------------------------------------------------------------------------------------
B|-----------------------------------------------------------------------------------------------
G|-----------------------------------------------------------------------------------------------
D|-----------------------------------------------------------------------------------------------
A|--------5-----------3-----------5-----------3-----------5-----------3-----------5-----------3--
E|--0--5-----5--0--3-----3--0--5-----5--0--3-----3--0--5-----5--0--3-----3--0--5-----5--0--3-----



E|-----------------------------------------------------------------------------------------------
B|-----------------------------------------------------------------------------------------------
G|-----------------------------------------------------------------------------------------------
D|-----------------------------------------------------------------------------------------------
A|-----------5-----------3-----------5-----------3-----------5-----------3-----------5-----------
E|--3--0--5-----5--0--3-----3--0--5-----5--0--3-----3--0--5-----5--0--3-----3--0--5-----5--0--3--



E|-----
B|-----
G|-----
D|-----
A|-----
E|--0--



E|----------------------------------------------------------------------
B|----------------------------------------------------------------------
G|----------------------------------------------------------------------
D|----------------------------------------------------------------------
A|--3-----------5-----------3-----------5-----------3-----3v--v--5v--v--
E|-----3--0--5-----5--0--3-----3--0--5-----5--0--3-----3--3------5------



E|----------------------------------------------------------------------------------------------
B|----------------------------------------------------------------------------------------------
G|----------------------------------------------------------------------------------------------
D|----------------------------------------------------------------------------------------------
A|---------8---------4--5--7--5--4--5---------8---------2--3--5--3--2-----------8---------4--5--
E|--0v--0-----0--0v--------------------0v--0-----0--0v-----------------3b0v--0-----0--0v--------



E|---------------------------------------------------------------------------------------------
B|---------------------------------------------------------------------------------------------
G|---------------------------------------------------------------------------------------------
D|---------------------------------------------------------------------------------------------
A|--7--5--4--5---------8---------2--3--5--3--2-----------8---------4--5--7--5--4--5------2-----
E|--------------0v--0-----0--0v-----------------3b0v--0-----0--0v--------------------0v--------



E|-------------------------------------------------------------------------------------
B|-------------------------------------------------------------------------------------
G|-------------------------------------------------------------------------------------
D|-------------------------------------------------------------------------------------
A|--3--5--3--2-----------8---------4--5--7--5--4--5---------8---------2--3--5--3--2----
E|--------------3b0v--0-----0--0v--------------------0v--0-----0--0v-----------------3b



E|---------------------------------------------------------------------------------------------
B|---------------------------------------------------------------------------------------------
G|---------------------------------------------------------------------------------------------
D|---------------------------------------------------------------------------------------------
A|--0v--0--0--0v--0--0--8v--8--8--8--5--3v--3--3--3v--3--3--7v--7--7--7v--5v--0v--0--0--0v--0--
E|--0---0--0--0---0--0--8---8--8--8--5--3---3--3--3---3--3--7---7--7--7---5---0---0--0--0---0--



E|--------------------------------------------------------------------------------------------
B|--------------------------------------------------------------------------------------------
G|--------------------------------------------------------------------------------------------
D|----------------------v-----3----------------------------------0----------------------------
A|--0--8v--8--8--8--5--3---3--3--3v--3--3--7v--7--7--7v--5v--0v-----0--0v--0--0--8v--8--8--8--
E|--0--8---8--8--8--5--3---3--3--3---3--3--7---7--7--7---5---0---0--0--0---0--0--8---8--8--8--



E|---------------------------------------------------------------------------------------------
B|---------------------------------------------------------------------------------------------
G|---------------------------------------------------------------------------------------------
D|-----------------------------------------------------0---------------------------------------
A|--5--3v--3--3--3v--3--3--7v--7--7--7v--5---0v--0--0--0v--0--0--8---8--8--8--5--3v--3--3--3v--
E|--5--3---3--3--3---3--3--7---7--7--7---5v--0---0--0--0---0--0--8v--8--8--8--5--3---3--3--3---



E|--------------------------------------------------------------------------------------------
B|--------------------------------------------------------------------------------------------
G|--------------------------------------------------------------------------------------------
D|--------------------------------------------------------------------------------------------
A|--3--3--7v--7--7--7v--5v--v--0v--0--0--0v--0--0--8v--8--8--8--5--3v--3--3--3---3--3--7v--7--
E|--3--3--7---7--7--7---5------0---0--0--0---0--0--8---8--8--8--5--3---3--3--3v--3--3--7---7--



E|------------------------------------------------------------------------------------------------
B|------------------------------------------------------------------------------------------------
G|------------------------------------------------------------------------------------------------
D|--------------------------------------------------------3---------------------------------------
A|--7--7v--5v--v--0v--0--0--0v--0--0--8v--8--8--8--5--3v--3--3--3v--3--3--7v--7--7--7v--5v--v-----
E|--7--7---5------0---0--0--0---0--0--8---8--8--8--5--3---3--3--3---3--3--7---7--7--7---5---------



E|----------------------------------------------------------------------------
B|----------------------------------------------------------------------------
G|----------------------------------------------------------------------------
D|----------------------------------------------------------------------------
A|--0v--0--0--0v--0--0--8v--8--8--8--5--3v--3--3--3v--3--7v--7--7--7v--5v--v--
E|--0---0--0--0---0--0--8---8--8--8--5--3---3--3--3---3--7---7--7--7---5------



E|-------------------------------------------------------------------------------------------
B|-------------------------------------------------------------------------------------------
G|-------------------------------------------------------------------------------------------
D|--7--7-----------------------5--5--------7v--------7v--v--------7--7-----------------------
A|--5--5--0--0--0v--2--2--2-3--3--3--5--5--5---5--5--5------5--5--5--5--0--0--0v--2--2--2/3--
E|--------0--0--0---2--2--2/3--3----------------------------------------0--0--0---2--2--2-3--



E|------------------------------------------------------------------------------------------------
B|------------------------------------------------------------------------------------------------
G|------------------------------------------------------------------------------------------------
D|--5--5--------7v--------7v--v--------7--7-----------------------5--5--------7v--------7v--v-----
A|--3--3--5--5--5---5--5--5------5--5--5--5--0--0--0v--2--2--2/3--3--3--5--5--5---5--5--5---------
E|-------------------------------------------0--0--0---2--2--2-3----------------------------------



E|--------------------------------------------------------------------------------------------
B|--------------------------------------------------------------------------------------------
G|--------------------------------------------------------------------------------------------
D|--------7--7-----------------------5--5--------7v--------7v--v--------7--7------------------
A|--5--5--5--5--0--0--0v--2--2--2/3--3--3--5--5--5---5--5--5------5--5--5--5--0--0--0v--2--2--
E|--------------0--0--0---2--2--2-3-------------------------------------------0--0--0---2--2--



E|---------------------------------------------------
B|---------------------------------------------------
G|---------------------------------------------------
D|-------5--5--------7v--------7v--5v--7v--v--v--/3--
A|--2/3--3--3--5--5--5---5--5--5---3---5----------1--
E|--2-3----------------------------------------------
http://www.guitartabcreator.com
Guitar Tab Creator is intended to store guitar tab created through the tool. It currently does not support in-line text editing. Any text you place in here will be lost. If you need to comment on your tab, please use the "Tab Notes" section located below.