A Forest - The Cure (Band Version, Rythm Guitar)

(/) Slide Up  (\) Slide Down  (h) Hammer On  (p) Pull Off  (b) Bend (r) Release (v) Vibrato

intro: starts at 0:34
E|---------------------------|---------------------------
B|---------------------------|---------------------------
G|---------------------------|---------------------------
D|--7--5--7--9--10--9--7--5--|--7--5--7--9--10--9--7--5--
A|---------------------------|---------------------------
E|---------------------------|---------------------------


verse:
E|-----------------------------------------------------------
B|-----------------------------------------------------------
G|-----------------------------------------------------------
D|--7--7--7--7----7--7----10--10--10--10----10--10--10-------
A|--7--7--7--7----7--7----10--10--10--10----10--10--10-------
E|--5--5--5--5----5--5----8---8---8---8-----8---8---8--------



E|----------------------------------------------------
B|----------------------------------------------------
G|-----------------------------7--7--7--7----7--7--7--
D|--3--3--3--3----3--3--3------7--7--7--7----7--7--7--
A|--3--3--3--3----3--3--3------5--5--5--5----5--5--5--
E|--1--1--1--1----1--1--1-----------------------------


chorus:
E|--------------------------------------------------
B|--------------------------------------------------
G|--4--4--4--4----4--4--4----5--5--5--5----5--5--5--
D|--4--4--4--4----4--4--4----5--5--5--5----5--5--5--
A|--2--2--2--2----2--2--2----3--3--3--3----3--3--3--
E|--------------------------------------------------



E|--------------------------------------------------
B|--------------------------------------------------
G|---------------------------5--5--5--5----5--5--5--
D|--7--7--7--7----7--7--7----5--5--5--5----5--5--5--
A|--7--7--7--7----7--7--7----3--3--3--3----3--3--3--
E|--5--5--5--5----5--5--5---------------------------



E|--------------------------------------------------
B|--------------------------------------------------
G|--4--4--4--4----4--4--4----5--5--5--5----5--5--5--
D|--4--4--4--4----4--4--4----5--5--5--5----5--5--5--
A|--2--2--2--2----2--2--2----3--3--3--3----3--3--3--
E|--------------------------------------------------



E|--------------------------------------------------
B|--------------------------------------------------
G|--------------------------------------------------
D|--7--7--7--7----7--7--7----3--3--3--3----3--3--3--
A|--7--7--7--7----7--7--7----3--3--3--3----3--3--3--
E|--5--5--5--5----5--5--5----1--1--1--1----1--1--1--
http://www.guitartabcreator.com
Guitar Tab Creator is intended to store guitar tab created through the tool. It currently does not support in-line text editing. Any text you place in here will be lost. If you need to comment on your tab, please use the "Tab Notes" section located below.