A Forest - The Cure (Band Version, Lead Guitar)

(/) Slide Up  (\) Slide Down  (h) Hammer On  (p) Pull Off  (b) Bend (r) Release (v) Vibrato


E|--------------------------|--------------------------|--
B|--------------------------|--------------------------|--
G|--------------------------|--------------------------|--
D|-----7-----3-----2-----3--|-----7-----3-----2-----3--|--
A|--0-----0-----0-----0-----|--0-----0-----0-----0-----|--
E|--------------------------|--------------------------|--



E|---------------------------
B|---------------------------
G|---------------------------
D|-----7-----9-----10-----3--
A|--0-----0-----0------0-----
E|---------------------------



E|--------------------------|--------------------------
B|--------------------------|--------------------------
G|--------------------------|--------------------------
D|-----7-----3-----2-----3--|-----7-----3-----2-----3--
A|--0-----0-----0-----0-----|--0-----0-----0-----0-----
E|--------------------------|--------------------------



E|---------------------------------------------------------
B|---------------------------------------------------------
G|---------------------------------------------------------
D|-----7-----9-----10-----7-----5-----3-----2-----0--------
A|--0-----0-----0------0-----0-----0-----0-----0-----0-----
E|------------------------------------------------------0--



http://www.guitartabcreator.com
Guitar Tab Creator is intended to store guitar tab created through the tool. It currently does not support in-line text editing. Any text you place in here will be lost. If you need to comment on your tab, please use the "Tab Notes" section located below.