Dire Straits Sultans Of Swing Solo 1

(/) Slide Up  (\) Slide Down  (h) Hammer On  (p) Pull Off  (b) Bend (r) Release (v) Vibrato


E|------------------------------------------------
B|------------------------------------------------
G|--12b13--12b13--12b13--12b13--10h12p10--9h10p9--
D|------------------------------------------------
A|------------------------------------------------
E|------------------------------------------------



E|-----------------10--12b14--12b13--10--------------
B|-------------10------------------------10----------
G|----------9--------------------------------10------
D|------11---------------------------------------12--
A|--12-----------------------------------------------
E|---------------------------------------------------



E|----------------------------------------------------
B|--10--13--10h13p10------10----10--13--10h11p10--13--
G|--------------------12------------------------------
D|----------------------------------------------------
A|----------------------------------------------------
E|----------------------------------------------------



E|-------------13--13-----------------
B|---------13----------13-------------
G|--12b14------------------14r12--10--
D|------------------------------------
A|------------------------------------
E|------------------------------------



E|--12/13--12-------------------------
B|-------------12------10--13--13b14--
G|-----------------12-----------------
D|------------------------------------
A|------------------------------------
E|------------------------------------



E|---------------------------------
B|--13b15--13b15p10--13b14--13b15--
G|---------------------------------
D|---------------------------------
A|---------------------------------
E|---------------------------------
http://www.guitartabcreator.com
Guitar Tab Creator is intended to store guitar tab created through the tool. It currently does not support in-line text editing. Any text you place in here will be lost. If you need to comment on your tab, please use the "Tab Notes" section located below.