Beethoven - Fur Elise Part I

(/) Slide Up  (\) Slide Down  (h) Hammer On  (p) Pull Off  (b) Bend (r) Release (v) Vibrato
E|--12--11--12--11--12--7--10--8----------------------5--7--
B|--------------------------------10---------------5--------
G|----------------------------------------------5-----------
D|-------------------------------------------7--------------
A|----------------------------------------7-----------------
E|----------------------------------------------------------



E|--------------7--8-----------
B|-----------9-----------------
G|--------9-----------------9--
D|-----6-----------------7-----
A|--7-----------------7--------
E|-----------------------------



E|--12--11--12--11--12--7--10--8------------------5--7-----------9--7------
B|--------------------------------10-----------5-----------------------10--
G|------------------------------------------5-----------------9------------
D|---------------------------------------7-----------------6---------------
A|------------------------------------7-----------------7------------------
E|-------------------------------------------------------------------------



E|--------7--8--10--12--------------14--12--10-------------12--10--8--
B|--------------------------------------------------------------------
G|------------------------------12---------------------10-------------
D|-----7--------------------10----------------------9-----------------
A|--7-------------------10----------------------10--------------------
E|--------------------------------------------------------------------



E|-----------10--9--7-----------------12--12--11--12--11--12--11--12--7--10--8------
B|------------------------------------------------------------------------------10--
G|--------9---------------------9--9------------------------------------------------
D|-----7----------------------------------------------------------------------------
A|--7------------------7--7--7------------------------------------------------------
E|----------------------------------------------------------------------------------



E|--8--8--8--8------13b14--12--12--10------18b19--17--17--15--------------
B|------------------------------------------------------------18--17--15--
G|------------------------------------------------------------------------
D|--8--7--5---------------------------------------------------------------
A|-----------8------------------------------------------------------------
E|------------------------------------------------------------------------



E|-------------------------------------
B|--13----------------------------13v--
G|------15--14v--15p14p12h14--15-------
D|-------------------------------------
A|-------------------------------------
E|-------------------------------------
http://www.guitartabcreator.com
Guitar Tab Creator is intended to store guitar tab created through the tool. It currently does not support in-line text editing. Any text you place in here will be lost. If you need to comment on your tab, please use the "Tab Notes" section located below.