The Spurway Pirouette

(/) Slide Up  (\) Slide Down  (h) Hammer On  (p) Pull Off  (b) Bend (r) Release (v) Vibrato
E|--------------------------
B|--------------------------
G|--------------------------
D|----10----10---------5----
A|----8-----7-----7----2----
E|----------------7---------



E|-----------------------------------
B|-----------------------------------
G|-----------------------------------
D|-----7-----9-----9-----7-----9-----
A|-----3-----5-----7-----3-----5-----
E|-----3-----5-----6-----3-----5-----



E|-----------
B|-----------
G|-----------
D|-----5-----
A|-----3-----
E|-----------



E|-----------------------
B|-----------------------
G|-----------------------
D|-----5-----------------
A|-----3-----7-----3-----
E|-----------7-----3-----



E|-----------------------------
B|-----------------------------
G|-----------------------------
D|-----------------5-----------
A|-----3-----5-----3-----7-----
E|-----3-----5-----2-----7-----



E|-----------------------------
B|-----------------------------
G|-----------------------------
D|-----5-----5-----2-----------
A|-----3-----2-----0-----7-----
E|-----------------------7-----



E|--------
B|--5-----
G|--5-----
D|--------
A|--3-----
E|--------



E|-----------------------
B|-----------------------
G|-----------------------
D|--------5--------------
A|--3--5--3--7--3--5--7--
E|--3--5--2--7--3--5--7--



E|-----------------------------------
B|-----------------------------------
G|-----------------------------------
D|--7--9--10--9--10--12--14--12--10--
A|--3--7--7---7--7---10--10--10--7---
E|--3--6--6---6--7---9---10--9---7---



E|----------------------
B|----------------------
G|--5--7--7--9---12-----
D|--7--9--9--10--14-----
A|--3--5--7--7---10-----
E|--3--5--6--7---10-----



E|--------5--
B|--------5--
G|-----------
D|-----------
A|--3--5--5--
E|--3--5--5--
http://www.guitartabcreator.com
Guitar Tab Creator is intended to store guitar tab created through the tool. It currently does not support in-line text editing. Any text you place in here will be lost. If you need to comment on your tab, please use the "Tab Notes" section located below.