The Penultimate Year

(/) Slide Up  (\) Slide Down  (h) Hammer On  (p) Pull Off  (b) Bend (r) Release (v) Vibrato
E|--------------------
B|--------------------
G|--------------------
D|-8-------8--10-7--8-
A|-5-------5--8--5--5-
E|-5-------5--7--4--5-



E|----------------------------------------------------
B|----------------------------------------------------
G|----------------------------------------------------
D|----------------------------------------------------
A|----------------------------------------------------
E|-5-5--5-5--5-5--7-7--7-7--7-4-4--4-4--4-4--5-5--5-5-



E|------------------------------------------------
B|------------------------------------------------
G|------------------------------------------------
D|------------------------------------------------
A|--1----5----5----------1--3--5--5------8----11--
E|--1----4----5----------1--3--4--5------8----11--



E|-------------------------------------------------------------
B|-------------------------------------------------------------
G|-------------------------------------------------------------
D|----12----15----8--------------------------------------------
A|----8-----12----5--------------------------------------------
E|----8-----12----5----5----4----1----4----1----0----1----4----



E|---------------------------
B|---------------------------
G|---------------------------
D|---------------------------
A|-1-1--1-1--1-1----1-1--1-1-
E|-0-0--0-0--0-0----0-0--0-0-



E|--------------------------
B|--------------------------
G|----------------3----6----
D|----15----15--------------
A|----12----12----1----4----
E|----12----11----1----4----



E|------------------------------------------------
B|------------------------------------------------
G|--5---------------------------------------------
D|------------------------------------------------
A|--3--------------4----1----4--3--1--4--3--1--3--
E|--3--------------4----1----4--3--1--4--3--1--3--



E|-------------------------
B|-------------------------
G|-------------------------
D|-------------------------
A|-3--1-3-4-3---3-3---3----
E|-3--1-3-4-3---3-3---3----
http://www.guitartabcreator.com
Guitar Tab Creator is intended to store guitar tab created through the tool. It currently does not support in-line text editing. Any text you place in here will be lost. If you need to comment on your tab, please use the "Tab Notes" section located below.