Infamita

(/) Slide Up  (\) Slide Down  (h) Hammer On  (p) Pull Off  (b) Bend (r) Release (v) Vibrato


E|-----------------------------
B|-----------------------------
G|-----------------------------
D|-----------------------------
A|--0--0--0----0----0----0--0--
E|--1--1--1----1----1----1--1--



E|-----------------------------
B|-----------------------------
G|-----------------------------
D|-----------------------------
A|--1--1--1----1----1----1--1--
E|--0--0--0----0----0----0--0--



E|--------
B|--------
G|--------
D|--------
A|--8--8--
E|--8--7--



E|-----------------------------------
B|----6----5----10----3----3----5----
G|----7----5----10----3----3----6----
D|-----------------------------------
A|----5----3----------1----0----4----
E|-----------------------------------



E|-----------------------
B|-----------------------
G|-----------------------
D|-----------------------
A|-----0-----2-----4-----
E|-----0-----2-----3-----



E|-----------------------------
B|-----------------------------
G|-----------------------------
D|-----------------------------
A|-----4-----8-----0-----0-----
E|-----4-----8-----0-----0-----



E|-----------------------------
B|-----------------------------
G|-----------------------------
D|-----------------------------
A|-----4-----8-----5-----4-----
E|-----4-----8-----5-----4-----



E|----------------------------------------
B|----------------------------------------
G|----------------------------------------
D|----------------------------------------
A|-----3-----4-----1-----4----------0-----
E|-----3-----4-----1-----4----------0-----
http://www.guitartabcreator.com
Guitar Tab Creator is intended to store guitar tab created through the tool. It currently does not support in-line text editing. Any text you place in here will be lost. If you need to comment on your tab, please use the "Tab Notes" section located below.