The Great Fabricator

(/) Slide Up  (\) Slide Down  (h) Hammer On  (p) Pull Off  (b) Bend (r) Release (v) Vibrato
E|----------------------------------
B|----------------------------------
G|----------------------------------
D|----8--------------7--------------
A|----6----2----1----5----4----5----
E|---------2----1---------4----5----



E|-----------------------------------------------------------
B|-----------------------------------------------------------
G|-----------------------------------------------------------
D|-----------------------------------------8--7--6-----------
A|--1--0------1--4--0----0----0------1--4--6--5--4--1--4--0--
E|--1--0------1--4--0----0----0------1--4-----------1--4--0--



E|--------------------------------------
B|--------------------------------------
G|--------------------------------------
D|--------------------------------------
A|--0--3--2--0------0--0--3--2--0----0--
E|--1--4--3--1------1--1--4--3--1----1--



E|-----------------------------------------------
B|-----------------------------------------------
G|-----------------------------------------------
D|-----------------------------------------------
A|--0--0------4--5--4------0--0----0--0----0--0--
E|--1--0------4--5--4------1--0----1--0----1--0--



E|-----------------------------------------------------------------
B|-----------------------------------------------------------------
G|-----------------------------------------------------------------
D|--11--10--7--------8--11--------8--7--------7--6-----------------
A|--9---8---5--------6--9---------6--5--------5--4--0--0--0--0--0--
E|-------------0--0---------0--0--------0--0--------1--1--1--1--1--



E|----------------------------------------------
B|----------------------------------------------
G|----------------------------------------------
D|----------------------------------------------
A|--1--0------4--5--4----1--5----0--0--4--1--0--
E|--1--0------4--5--4----1--5----1--1--4--1--0--



E|-----------------------------------------------------------------
B|-----------------------------------------------------------------
G|-----------------------------------------------------------------
D|-----------------------------------------------------------------
A|-----------------------------------------------------------------
E|-1-1-1-1-4-4-0-0-0-0-5-5-5-5-4-4-4-4-1-1-1-1-0-0-0-0-0-0-1-1-4-4-



E|------------------------------------
B|------------------------------------
G|------------------------------------
D|------------------------------------
A|--1--4--0----5--4--1--0----0--1--4--
E|--1--4--0----5--4--1--0----0--1--4--
http://www.guitartabcreator.com
Guitar Tab Creator is intended to store guitar tab created through the tool. It currently does not support in-line text editing. Any text you place in here will be lost. If you need to comment on your tab, please use the "Tab Notes" section located below.