Enough Embellishment

(/) Slide Up  (\) Slide Down  (h) Hammer On  (p) Pull Off  (b) Bend (r) Release (v) Vibrato
E|--------------0-------------------------------------------------------------0----------
B|--------------0-------------------------------------------------------------0----------
G|---------------------------------------------------------------------------------------
D|--4------------------------------------------------------------------------------------
A|--2--1--0--4-----0----5--4----4--1----0----1--1----4--4----0--0----4--1--0-------0--1--
E|-----1--0--4-----0----5--4----4--1----0----1--1----4--4----0--0----4--1--0-------0--1--



E|------------------------------------------------------------------------------
B|------------------------------------------------------------------------------
G|------------------------------------------------------------------------------
D|------------------------------------------------------------------------------
A|--0----0--0--0----0----0--0--0--0----0----0--0----0--0----0----0--0--0--0--0--
E|--1----1--1--1----1----1--1--1--1----1----0--1----0--1----1----1--1--1--1--1--



E|-----------------------------------0------------------------5-----------
B|-----------------------------------0------------------------5-----------
G|------------------------------------------------------------------------
D|--------------------------4------------------------4--------------------
A|--1--0----4--1----1--0----2--1--0-----0------------2--1--0-----0--1--4--
E|--1--0----4--1----1--0-------1--0-----0----1--1-------1--0-----0--1--4--



E|---------------------------------------------
B|---------------------------------------------
G|---------------------------------------------
D|---------------------------------------------
A|--0--0----0--0----0----0--0--0----0----0--0--
E|--1--1----1--1----1----1--1--1----1----1--1--



E|-----------------------------------------------------------------
B|-----------------------------------------------------------------
G|-----------------------------------------------------------------
D|-----------------------------------------------------------------
A|--1--4--3------1--4----1--5----5--4----1--4--1--0----1--4--1--0--
E|--1--4--3------1--4----1--5----5--4----1--4--1--0----1--4--1--0--
http://www.guitartabcreator.com
Guitar Tab Creator is intended to store guitar tab created through the tool. It currently does not support in-line text editing. Any text you place in here will be lost. If you need to comment on your tab, please use the "Tab Notes" section located below.