22

(/) Slide Up  (\) Slide Down  (h) Hammer On  (p) Pull Off  (b) Bend (r) Release (v) Vibrato

E|------------------------------------------
B|------------------------------------------
G|------------------------------------------
D|--------------12--10--8---------------10--
A|--8--12--8----8---8---5----5--3--1----8---
E|--8--12--8----8---7---5----5--3--1----7---



E|------10--------10-----------------3--------3-----------------3--------3---3---3-
B|------10--------10-----------------3--------3-----------------3--------3---3---3-
G|---------------------------------------------------------------------------------
D|-------------------------7-------------------------------------------------------
A|-8--8----8-8-8-----8---8-5---5--5----5-5-5----5--5-3--3-1--1----1-1-1----1---1---
E|-8--8----8-8-8-----8---8-4---5--5----5-5-5----5--5-3--3-1--1----1-1-1----1---1---



E|-------3--------3----------
B|-------3--------3----------
G|---------------------------
D|-----------------------7-7-
A|-3--3----3-3-3----3--3-5-5-
E|-3--3----3-3-3----3--3-4-4-



E|------------------------------------
B|------------------------------------
G|------------------------------------
D|-----------------5-----7-----10-----
A|-----8-----3-----3-----5-----7------
E|-----8-----3-----2------------------



E|-----------------------
B|-----------------------
G|-----------------------
D|---0---0-----------0---
A|---2---0---5---5---0---
E|-----------5---0-------



E|------------------------
B|------------------------
G|------------------------
D|------------------------
A|----9----5----0----7----
E|----9----5----0----7----
http://www.guitartabcreator.com
Guitar Tab Creator is intended to store guitar tab created through the tool. It currently does not support in-line text editing. Any text you place in here will be lost. If you need to comment on your tab, please use the "Tab Notes" section located below.