Rimshy

(/) Slide Up  (\) Slide Down  (h) Hammer On  (p) Pull Off  (b) Bend (r) Release (v) Vibrato
COUPLET a

E|--------------------------------------------------------
B|--------------------------------------------------------
G|--------------------------------------------------------
D|--------------------------------------------------------
A|--------------------------------------------------------
E|--0--0--12--0--0--13--0--0--10--0--0--10--0--0--10--12--

COUPLET b

E|--------------------------------------
B|--------------------------------------
G|--------------------------------------
D|--------------------------------------
A|--------------------------------------
E|--12--13--10----0--10--10--0--10--12--

REFREIN

E|------------------------------------------------------------------------------------
B|------------------------------------------------------------------------------------
G|------------------------------------------------------------------------------------
D|------------------------------------------------------------------------------------
A|----------------------3--3--3--3--6--6--6-------------------------------------------
E|--0--0----0--1--0--0-----------------------0--0----0--1--0--0--6--5--0--5--0--5--6--

BRUG

E|--------------------------------------------------------------------------------------------------
B|--------------------------------------------------------------------------------------------------
G|--------------------------------------------------------------------------------------------------
D|--------------------------------------------------------------------------------------------------
A|-----8--8-----8--8-----8-----8--8-----8--8-----8--------------------------------------------------
E|--0--------0--------0-----0--------0--------0-----0--6--5--0--3--0--3--5--0--6--5--0--3--0--3--5--


E|--------------------------------------------------------------------------------------------------
B|--------------------------------------------------------------------------------------------------
G|--------------------------------------------------------------------------------------------------
D|--------------------------------------------------------------------------------------------------
A|-----8--8-----8--8-----8-----8--8-----8--8-----10-------------------------------------------------
E|--0--------0--------0-----0--------0--------0-----0--6--5--0--3--0--3--5--0--6--5--0--3--0--3--5--


http://www.guitartabcreator.com
Guitar Tab Creator is intended to store guitar tab created through the tool. It currently does not support in-line text editing. Any text you place in here will be lost. If you need to comment on your tab, please use the "Tab Notes" section located below.