Motory

(/) Slide Up  (\) Slide Down  (h) Hammer On  (p) Pull Off  (b) Bend (r) Release (v) Vibrato
E|-------------------------------------------------------------------
B|-------------------------------------------------------------------
G|-------------------------------------------------------------------
D|-------------------------------------------------------------------
A|-------------------------------------------------------------------
E|--9--7--9--12--9--7--9--7--9------2--0--2--3--2--0--2--0--2--7--7--



E|-----------------------------------------------------------------------------------------
B|-----------------------------------------------------------------------------------------
G|-----------------------------------------------------------------------------------------
D|-----------------------------------------------------------------------------------------
A|--------12-----12--11--------12-----12--14--------12-----12--11--------------------------
E|--9--9------9----------9--9------9----------9--9------9----------7--7--7--10--10--10-----



E|--------------------------------------------------------------------------------------------------------------------------------
B|--------------------------------------------------------------------------------------------------------------------------------
G|--------------------------------------------------------------------------------------------------------------------------------
D|--------------------------------------------------------------------------------------------------------------------------------
A|--------------------------------------------------------------------------------------------------------------------------------
E|--4--4--4--4--4--4--4--7--7--7--10--10--10--4--4--4--4--4--4--4--7--7--7--10--10--10--4--4--4--4--4--4--4--7--7--7--10--10--10--



E|---------------------------------------------
B|---------------------------------------------
G|-----11------12-----9-----11-----6--------7--
D|---------------------------------------------
A|---------------------------------------------
E|--9------10------7-----9------4-----4--5-----



E|--
B|--
G|--
D|--
A|--
E|--
http://www.guitartabcreator.com
Guitar Tab Creator is intended to store guitar tab created through the tool. It currently does not support in-line text editing. Any text you place in here will be lost. If you need to comment on your tab, please use the "Tab Notes" section located below.