Metally

(/) Slide Up  (\) Slide Down  (h) Hammer On  (p) Pull Off  (b) Bend (r) Release (v) Vibrato
INTRO/OUTRO/BRUG VAN COUPLET NAAR REFREIN

E|------------------------------------------
B|------------------------------------------
G|------------------------------------------
D|------------------------------------------
A|------------------------------------------
E|--0--0--0--8--7--0--10--8--0--7--8--7----- Drie keer dit schema spelen en dan:



E|-------------------------------------------------------
B|-------------------------------------------------------
G|-------------------------------------------------------
D|-------------------------------------------------------
A|-------------------------------------------------------
E|--10--10--10--10--10--10--11--11--11--11--11--8--8--8--

REFREIN:

E|-----------------------------------------------------------------------
B|-----------------------------------------------------------------------
G|-----------------------------------------------------------------------
D|-----------------------------------------------------------------------
A|-----------------------------------------------------------------------
E|--0--0--3--4--3--0--0--3--4--3--0--0--3--4--3--10--10--10--11--11--11--

COUPLET:
Accoordenschema zelf even ritme uitzoeken...

E|--0--0-------------
B|--3--3-------------
G|--2--0--10--9--12--
D|--0--3--8---7--10--
A|--0--x--8---7--10--
E|--0--3--8---7--10--



E|--0--0---------------------------------------------------------
B|--3--3---------------------------------------------------------
G|--2--0--10--9--------------------------------------------------
D|--0--0--8---7--------------------------------------------------
A|--0--x--8---7--------------------------------------------------
E|--0--3--8---7--10--10--10--10--10--10--11--11--11--11--11--11--
http://www.guitartabcreator.com
Guitar Tab Creator is intended to store guitar tab created through the tool. It currently does not support in-line text editing. Any text you place in here will be lost. If you need to comment on your tab, please use the "Tab Notes" section located below.