Grippy

(/) Slide Up  (\) Slide Down  (h) Hammer On  (p) Pull Off  (b) Bend (r) Release (v) Vibrato

INTRO/BRUG:

E|-----------------------------------------------------
B|-----------------------------------------------------
G|-----------------------------------------------------
D|-----------------------------------------------------
A|--------------3--3--3--5--5--5--------------8--8--8--
E|--3--4--5--0--------------------3--4--5--0-----------


COUPLET:

E|----------------------------------------------------------------------------------------------
B|----------------------------------------------------------------------------------------------
G|----------------------------------------------------------------------------------------------
D|----------------------------------------------------------------------------------3h5p3p0-----
A|----------------------------------------------------------------------------------------------
E|--0--0--0--0--0--10\----0--0--0--0--0--8--10----0--0--0--0--0--10\----3--3--3--5-----------0--

REFREIN:
Accoordenschema. Zelf even ritme uitzoeken...

E|--------------------------------------------------------------
B|--------------------------------------------------------------
G|------11--12----12--------------11--12--14--------------------
D|--10------------10----------10----------------------10--3--1--
A|--8---9---10----10----------8---9---10--12----------8---3--1--
E|--8---0---0-----10----------8---0---0---0-----------8---3--1--
Guitar Tab Creator is intended to store guitar tab created through the tool. It currently does not support in-line text editing. Any text you place in here will be lost. If you need to comment on your tab, please use the "Tab Notes" section located below.