Fooy

(/) Slide Up  (\) Slide Down  (h) Hammer On  (p) Pull Off  (b) Bend (r) Release (v) Vibrato

COUPLET:
E|--------------------------------------------------------------------------------------------------------------
B|--------------------------------------------------------------------------------------------------------------
G|--------------------------------------------------------------------------------------------------------------
D|--------------------------------------------------------------------------------------------------------------
A|--------------------------------------------------------------------------------------------------------------
E|--12--12--12--12--12--12--12--12--12--9--9--9--9--9--9--9--9--5--5--5--5--8--8--8--8--3--3--3--3--5--5--5--5--

REFREIN:

E|-------------------------------------------------------------------------------------------------
B|-------------------------------------------------------------------------------------------------
G|-------------------------------------------------------------------------------------------------
D|-------------------------------------------------------------------------------------------------
A|-------------------------------------------------------8--8--8--8--8--8--8-----------------------
E|--0--10--12--0--10--12----0--10--12--0--5--0--3--4--0-----------------------7--7--7--8--8--8--8--

BRUG:

E|-------------------------------------------------------------------------------------------------
B|-------------------------------------------------------------------------------------------------
G|-------------------------------------------------------------------------------------------------
D|-------------------------------------------------------------------------------------------------
A|--5--5--5-----------3--3--3-------------------------5--5--5-----------3--3--3--------------------
E|-----------7--7--7-----------5--5--5--3--3--0--0-------------7--7--7-----------5--5--5--5--7--7--

BRUG NAAR OUTRO:

E|-----------------------------------------------------------------
B|-----------------------------------------------------------------
G|-----------------------------------------------------------------
D|--------------2--2--2--3--3--3--------------5--5--5--5--3--3--3--
A|--1--1--1--1--------------------3--3--3--3-----------------------
E|-----------------------------------------------------------------

OUTRO REFREIN:

E|----------------------------------------------------
B|----------------------------------------------------
G|----------------------------------------------------
D|----------------------------------------------------
A|----------------------------------------------------
E|--0--10--12--0--10--12----0--10--12--0--5--0--3--4--
http://www.guitartabcreator.com
Guitar Tab Creator is intended to store guitar tab created through the tool. It currently does not support in-line text editing. Any text you place in here will be lost. If you need to comment on your tab, please use the "Tab Notes" section located below.